  0
SECTION
  2
HEADER
  9
$ACADVER
  1
AC1014
  9
$ACADMAINTVER
 70
             0
  9
$DWGCODEPAGE
  3
ANSI_1252
  9
$INSBASE
 10
0.0
 20
0.0
 30
0.0
  9
$EXTMIN
 10
1.00000000000000E+20
 20
1.00000000000000E+20
 30
1.00000000000000E+20
  9
$EXTMAX
 10
-1.00000000000000E+20
 20
-1.00000000000000E+20
 30
-1.00000000000000E+20
  9
$LIMMIN
 10
0.0
 20
0.0
  9
$LIMMAX
 10
0.0
 20
0.0
  9
$ORTHOMODE
 70
             0
  9
$REGENMODE
 70
             1
  9
$FILLMODE
 70
             1
  9
$QTEXTMODE
 70
             0
  9
$MIRRTEXT
 70
             1
  9
$DRAGMODE
 70
             2
  9
$LTSCALE
 40
1.0
  9
$OSMODE
 70
             0
  9
$ATTMODE
 70
             1
  9
$TEXTSIZE
 40
0.2
  9
$TRACEWID
 40
0.05
  9
$TEXTSTYLE
  7
STANDARD
  9
$CLAYER
  8
0
  9
$CELTYPE
  6
CONTINUOUS
  9
$CECOLOR
 62
           256
  9
$CELTSCALE
 40
1.0
  9
$DELOBJ
 70
             1
  9
$DISPSILH
 70
             0
  9
$DIMSCALE
 40
1.0
  9
$DIMASZ
 40
0.18
  9
$DIMEXO
 40
0.0625
  9
$DIMDLI
 40
0.38
  9
$DIMRND
 40
0.0
  9
$DIMDLE
 40
0.0
  9
$DIMEXE
 40
0.18
  9
$DIMTP
 40
0.0
  9
$DIMTM
 40
0.0
  9
$DIMTXT
 40
0.18
  9
$DIMCEN
 40
0.09
  9
$DIMTSZ
 40
0.0
  9
$DIMTOL
 70
             0
  9
$DIMLIM
 70
             0
  9
$DIMTIH
 70
             1
  9
$DIMTOH
 70
             1
  9
$DIMSE1
 70
             0
  9
$DIMSE2
 70
             0
  9
$DIMTAD
 70
             0
  9
$DIMZIN
 70
             0
  9
$DIMBLK
  1

  9
$DIMASO
 70
             1
  9
$DIMSHO
 70
             1
  9
$DIMPOST
  1

  9
$DIMAPOST
  1

  9
$DIMALT
 70
             0
  9
$DIMALTD
 70
             2
  9
$DIMALTF
 40
25.4
  9
$DIMLFAC
 40
1.0
  9
$DIMTOFL
 70
             0
  9
$DIMTVP
 40
0.0
  9
$DIMTIX
 70
             0
  9
$DIMSOXD
 70
             0
  9
$DIMSAH
 70
             0
  9
$DIMBLK1
  1

  9
$DIMBLK2
  1

  9
$DIMSTYLE
  2
STANDARD
  9
$DIMCLRD
 70
             0
  9
$DIMCLRE
 70
             0
  9
$DIMCLRT
 70
             0
  9
$DIMTFAC
 40
1.0
  9
$DIMGAP
 40
0.09
  9
$DIMJUST
 70
             0
  9
$DIMSD1
 70
             0
  9
$DIMSD2
 70
             0
  9
$DIMTOLJ
 70
             1
  9
$DIMTZIN
 70
             0
  9
$DIMALTZ
 70
             0
  9
$DIMALTTZ
 70
             0
  9
$DIMFIT
 70
             3
  9
$DIMUPT
 70
             0
  9
$DIMUNIT
 70
             2
  9
$DIMDEC
 70
             4
  9
$DIMTDEC
 70
             4
  9
$DIMALTU
 70
             2
  9
$DIMALTTD
 70
             2
  9
$DIMTXSTY
  7
STANDARD
  9
$DIMAUNIT
 70
             0
  9
$LUNITS
 70
             2
  9
$LUPREC
 70
             4
  9
$SKETCHINC
 40
0.1
  9
$FILLETRAD
 40
0.0
  9
$AUNITS
 70
             0
  9
$AUPREC
 70
             0
  9
$MENU
  1
acad
  9
$ELEVATION
 40
0.0
  9
$PELEVATION
 40
0.0
  9
$THICKNESS
 40
0.0
  9
$LIMCHECK
 70
             0
  9
$BLIPMODE
 70
             1
  9
$CHAMFERA
 40
0.0
  9
$CHAMFERB
 40
0.0
  9
$CHAMFERC
 40
0.0
  9
$CHAMFERD
 40
0.0
  9
$SKPOLY
 70
             0
  9
$TDCREATE
 40
0.000000000
  9
$TDUPDATE
 40
0.000000000
  9
$TDINDWG
 40
0.0000000000
  9
$TDUSRTIMER
 40
0.0000000000
  9
$USRTIMER
 70
             1
  9
$ANGBASE
 50
0.0
  9
$ANGDIR
 70
             0
  9
$PDMODE
 70
             0
  9
$PDSIZE
 40
0.0
  9
$PLINEWID
 40
0.0
  9
$COORDS
 70
             0
  9
$SPLFRAME
 70
             0
  9
$SPLINETYPE
 70
             6
  9
$SPLINESEGS
 70
             8
  9
$ATTDIA
 70
             0
  9
$ATTREQ
 70
             1
  9
$HANDLING
 70
             1
  9
$HANDSEED
  5
8A
  9
$SURFTAB1
 70
             6
  9
$SURFTAB2
 70
             6
  9
$SURFTYPE
 70
             6
  9
$SURFU
 70
             6
  9
$SURFV
 70
             6
  9
$UCSNAME
  2

  9
$UCSORG
 10
0.0
 20
0.0
 30
0.0
  9
$UCSXDIR
 10
1.0
 20
0.0
 30
0.0
  9
$UCSYDIR
 10
0.0
 20
1.0
 30
0.0
  9
$PUCSNAME
  2

  9
$PUCSORG
 10
0.0
 20
0.0
 30
0.0
  9
$PUCSXDIR
 10
1.0
 20
0.0
 30
0.0
  9
$PUCSYDIR
 10
0.0
 20
1.0
 30
0.0
  9
$USERI1
 70
             0
  9
$USERI2
 70
             0
  9
$USERI3
 70
             0
  9
$USERI4
 70
             0
  9
$USERI5
 70
             0
  9
$USERR1
 40
11.6
  9
$USERR2
 40
0.0
  9
$USERR3
 40
0.0
  9
$USERR4
 40
0.0
  9
$USERR5
 40
0.0
  9
$WORLDVIEW
 70
             1
  9
$SHADEDGE
 70
             3
  9
$SHADEDIF
 70
            70
  9
$TILEMODE
 70
             1
  9
$MAXACTVP
 70
            16
  9
$PINSBASE
 10
0.0
 20
0.0
 30
0.0
  9
$PLIMCHECK
 70
             0
  9
$PEXTMIN
 10
1.00000000000000E+20
 20
1.00000000000000E+20
 30
1.00000000000000E+20
  9
$PEXTMAX
 10
-1.00000000000000E+20
 20
-1.00000000000000E+20
 30
-1.00000000000000E+20
  9
$PLIMMIN
 10
0.0
 20
0.0
  9
$PLIMMAX
 10
12.0
 20
9.0
  9
$UNITMODE
 70
             0
  9
$VISRETAIN
 70
             0
  9
$PLINEGEN
 70
             1
  9
$PSLTSCALE
 70
             0
  9
$TREEDEPTH
 70
          3020
  9
$PICKSTYLE
 70
             1
  9
$CMLSTYLE
  2
STANDARD
  9
$CMLJUST
 70
             0
  9
$CMLSCALE
 40
1.0
  9
$PROXYGRAPHICS
 70
             0
  9
$MEASUREMENT
 70
             1
  0
ENDSEC
  0
SECTION
  2
CLASSES
  0
CLASS
  1
LWPOLYLINE
  2
AcDbPolyline
  3
"AutoCAD"
 90
        0
280
             0
281
             1
  0
CLASS
  1
IMAGE
  2
AcDbRasterImage
  3
ISM
 90
      127
280
             0
281
             1
  0
CLASS
  1
OLE2FRAME
  2
AcDbOle2Frame
  3
""
 90
        0
280
             0
281
             1
  0
CLASS
  1
HATCH
  2
AcDbHatch
  3
"ACAD_SEDONA"
 90
        0
280
             0
281
             1
  0
CLASS
  1
DICTIONARYVAR
  2
AcDbDictionaryVar
  3
"AutoCAD"
 90
        0
280
             0
281
             0
  0
CLASS
  1
RASTERVARIABLES
  2
AcDbRasterVariables
  3
ISM
 90
        0
280
             0
281
             0
  0
CLASS
  1
IMAGEDEF
  2
AcDbRasterImageDef
  3
ISM
 90
        0
280
             0
281
             0
  0
CLASS
  1
IMAGEDEF_REACTOR
  2
AcDbRasterImageDefReactor
  3
ISM
 90
        1
280
             0
281
             0
  0
CLASS
  1
IDBUFFER
  2
AcDbIdBuffer
  3
"Acad"
 90
        0
280
             0
281
             0
  0
CLASS
  1
SPATIAL_FILTER
  2
AcDbSpatialFilter
  3
"Acad"
 90
        0
280
             0
281
             0
  0
CLASS
  1
XRECORD
  2
AcDbXrecord
  3
"<Built In>"
 90
        0
280
             0
281
             0
  0
CLASS
  1
SORTENTSTABLE
  2
AcDbSortentsTable
  3
"AutoCAD"
 90
        0
280
             0
281
             0
  0
CLASS
  1
LAYER_INDEX
  2
AcDbLayerIndex
  3
"Acad"
 90
        0
280
             0
281
             0
  0
CLASS
  1
SPATIAL_INDEX
  2
AcDbSpatialIndex
  3
"Acad"
 90
        0
280
             0
281
             0
  0
CLASS
  1
OBJECT_PTR
  2
CAseDLPNTableRecord
  3
"ASE-LPNTableRecord"
 90
        1
280
             0
281
             0
  0
CLASS
  1
LAYOUT
  2
AcDbLayout
  3
"AutoCAD 2000"
 90
        1
280
             0
281
             0
  0
CLASS
  1
PLOTSETTINGS
  2
AcDbPlotSettings
  3
"AutoCAD 2000"
 90
        1
280
             0
281
             0
  0
CLASS
  1
ACDBDICTIONARYWDFLT
  2
AcDbDictionaryWithDefault
  3
"AutoCAD 2000"
 90
        1
280
             0
281
             0
  0
CLASS
  1
ACDBPLACEHOLDER
  2
AcDbPlaceHolder
  3
"AutoCAD 2000"
 90
        1
280
             0
281
             0
  0
ENDSEC
  0
SECTION
  2
TABLES
  0
TABLE
  2
VPORT
  5
7
100
AcDbSymbolTable
 70
             1
  0
VPORT
  5
15
100
AcDbSymbolTableRecord
100
AcDbViewportTableRecord
  2
*ACTIVE
 70
             0
 10
0.0
 20
0.0
 11
1.0
 21
1.0
 12
0.0
 22
0.0
 13
0.0
 23
0.0
 14
1.0
 24
1.0
 15
0.0
 25
0.0
 16
0.0
 26
0.0
 36
1.0
 17
0.0
 27
0.0
 37
0.0
 40
50.6
 41
1.60267857142857
 42
50.0
 43
0.0
 44
0.0
 50
0.0
 51
0.0
 71
             0
 72
           100
 73
             1
 74
             1
 75
             0
 76
             0
 77
             0
 78
             0
  0
ENDTAB
  0
TABLE
  2
LTYPE
  5
4
100
AcDbSymbolTable
 70
            10
  0
LTYPE
  5
11
100
AcDbSymbolTableRecord
100
AcDbLinetypeTableRecord
  2
BYBLOCK
 70
            64
  3

 72
            65
 73
             0
 40
0.0
  0
LTYPE
  5
12
100
AcDbSymbolTableRecord
100
AcDbLinetypeTableRecord
  2
BYLAYER
 70
            64
  3

 72
            65
 73
             0
 40
0.0
  0
LTYPE
  5
13
100
AcDbSymbolTableRecord
100
AcDbLinetypeTableRecord
  2
CONTINUOUS
 70
            64
  3
Solid line
 72
            65
 73
             0
 40
0.0
  0
LTYPE
  5
1D
100
AcDbSymbolTableRecord
100
AcDbLinetypeTableRecord
  2
DASHED
 70
            64
  3
Dashed
 72
            65
 73
             2
 40
15.0
 49
12.0
 74
             0
 49
-3.0
 74
             0
  0
LTYPE
  5
1E
100
AcDbSymbolTableRecord
100
AcDbLinetypeTableRecord
  2
DOTTED
 70
            64
  3
Dotted
 72
            65
 73
             2
 40
3.5
 49
0.5
 74
             0
 49
-3.0
 74
             0
  0
LTYPE
  5
1F
100
AcDbSymbolTableRecord
100
AcDbLinetypeTableRecord
  2
DOT_CENTER
 70
            64
  3
Dot_Center
 72
            65
 73
             4
 40
2.0
 49
1.25
 74
             0
 49
-0.25
 74
             0
 49
0.25
 74
             0
 49
-0.25
 74
             0
  0
LTYPE
  5
20
100
AcDbSymbolTableRecord
100
AcDbLinetypeTableRecord
  2
LONG_DASHED
 70
            64
  3
Long_Dashed
 72
            65
 73
             2
 40
2.0
 49
1.5
 74
             0
 49
-0.5
 74
             0
  0
LTYPE
  5
21
100
AcDbSymbolTableRecord
100
AcDbLinetypeTableRecord
  2
DASH_CENTER
 70
            64
  3
Dash_Center
 72
            65
 73
             4
 40
36.0
 49
24.0
 74
             0
 49
-3.0
 74
             0
 49
6.0
 74
             0
 49
-3.0
 74
             0
  0
LTYPE
  5
22
100
AcDbSymbolTableRecord
100
AcDbLinetypeTableRecord
  2
PHANTOM
 70
            64
  3
Phantom
 72
            65
 73
             6
 40
2.5
 49
1.25
 74
             0
 49
-0.25
 74
             0
 49
0.25
 74
             0
 49
-0.25
 74
             0
 49
0.25
 74
             0
 49
-0.25
 74
             0
  0
LTYPE
  5
23
100
AcDbSymbolTableRecord
100
AcDbLinetypeTableRecord
  2
CENTER_DASH_DASH
 70
            64
  3
Center_Dash_Dash
 72
            65
 73
             6
 40
22.0
 49
12.0
 74
             0
 49
-3.0
 74
             0
 49
0.5
 74
             0
 49
-3.0
 74
             0
 49
0.5
 74
             0
 49
-3.0
 74
             0
  0
ENDTAB
  0
TABLE
  2
LAYER
  5
2
100
AcDbSymbolTable
 70
             2
  0
LAYER
  5
14
100
AcDbSymbolTableRecord
100
AcDbLayerTableRecord
  2
0
 70
             0
 62
             7
  6
CONTINUOUS
  0
LAYER
  5
24
100
AcDbSymbolTableRecord
100
AcDbLayerTableRecord
  2
1
 70
             0
 62
             7
  6
CONTINUOUS
  0
ENDTAB
  0
TABLE
  2
STYLE
  5
3
100
AcDbSymbolTable
 70
             1
  0
STYLE
  5
17
100
AcDbSymbolTableRecord
100
AcDbTextStyleTableRecord
  2
STANDARD
 70
             0
 40
0.0
 41
1.0
 50
0.0
 71
             0
 42
0.0
  3
txt
  4

  0
ENDTAB
  0
TABLE
  2
VIEW
  5
5
100
AcDbSymbolTable
 70
             0
  0
ENDTAB
  0
TABLE
  2
UCS
  5
6
100
AcDbSymbolTable
 70
             0
  0
ENDTAB
  0
TABLE
  2
APPID
  5
8
100
AcDbSymbolTable
 70
             1
  0
APPID
  5
16
100
AcDbSymbolTableRecord
100
AcDbRegAppTableRecord
  2
ACAD
 70
             0
  0
ENDTAB
  0
TABLE
  2
DIMSTYLE
  5
9
100
AcDbSymbolTable
 70
             1
  0
DIMSTYLE
105
18
100
AcDbSymbolTableRecord
100
AcDbDimStyleTableRecord
  2
STANDARD
 70
             0
  3

  4

  5

  6

  7

 40
1.0
 41
0.18
 42
0.0625
 43
0.38
 44
0.18
 45
0.0
 46
0.0
 47
0.0
 48
0.0
 71
             0
 72
             0
 73
             1
 74
             1
 75
             0
 76
             0
 77
             0
 78
             0
140
0.18
141
0.09
142
0.0
143
25.4
144
1.0
145
0.0
146
1.0
147
0.09
170
             0
171
             2
172
             0
173
             0
174
             0
175
             0
176
             0
177
             0
178
             0
270
             2
271
             4
272
             4
273
             2
274
             2
275
             0
280
             0
281
             0
282
             0
283
             1
284
             0
285
             0
286
             0
287
             0
288
             0
340
17
  0
ENDTAB
  0
TABLE
  2
BLOCK_RECORD
  5
1
100
AcDbSymbolTable
 70
             0
  0
BLOCK_RECORD
  5
A
100
AcDbSymbolTableRecord
100
AcDbBlockTableRecord
  2
*MODEL_SPACE
  0
BLOCK_RECORD
  5
B
100
AcDbSymbolTableRecord
100
AcDbBlockTableRecord
  2
*PAPER_SPACE
  0
ENDTAB
  0
ENDSEC
  0
SECTION
  2
BLOCKS
  0
BLOCK
  5
D
100
AcDbEntity
  8
0
100
AcDbBlockBegin
  2
*MODEL_SPACE
 70
             0
 10
0.0
 20
0.0
 30
0.0
  3
*MODEL_SPACE
  1

  0
ENDBLK
  5
E
100
AcDbEntity
  8
0
100
AcDbBlockEnd
  0
BLOCK
  5
F
100
AcDbEntity
 67
             1
  8
0
100
AcDbBlockBegin
  2
*PAPER_SPACE
 70
             0
 10
0.0
 20
0.0
 30
0.0
  3
*PAPER_SPACE
  1

  0
ENDBLK
  5
10
100
AcDbEntity
 67
             1
  8
0
100
AcDbBlockEnd
  0
ENDSEC
  0
SECTION
  2
ENTITIES
  0
ARC
  5
88
100
AcDbEntity
  8
1
  6
CENTER_DASH_DASH
 62
             7
100
AcDbCircle
 10
8.61419309979367
 20
-0.04823064505526
 40
17.38803485259377
100
AcDbArc
 50
6.21370951039376
 51
10.2853678359418
  0
ARC
  5
87
100
AcDbEntity
  8
1
  6
CENTER_DASH_DASH
 62
             7
100
AcDbCircle
 10
8.75058692685848
 20
-0.02466609527761
 40
17.24962535004617
100
AcDbArc
 50
10.28924531170416
 51
14.38265734875758
  0
ARC
  5
86
100
AcDbEntity
  8
1
  6
CENTER_DASH_DASH
 62
             7
100
AcDbCircle
 10
8.62887491462202
 20
-0.05709284401516
 40
17.37557744932605
100
AcDbArc
 50
14.38654040689384
 51
18.46014482015707
  0
ARC
  5
85
100
AcDbEntity
  8
1
  6
CENTER_DASH_DASH
 62
             7
100
AcDbCircle
 10
7.45905617184768
 20
-0.44386651481582
 40
18.60767242404037
100
AcDbArc
 50
18.44922842763796
 51
22.3372897984413
  0
ARC
  5
84
100
AcDbEntity
  8
1
  6
CENTER_DASH_DASH
 62
             7
100
AcDbCircle
 10
7.58888181377503
 20
-0.39169831661722
 40
18.46776164458406
100
AcDbArc
 50
22.34066428007576
 51
26.24834000326415
  0
ARC
  5
83
100
AcDbEntity
  8
1
  6
CENTER_DASH_DASH
 62
             7
100
AcDbCircle
 10
7.48353372541336
 20
-0.44486981095015
 40
18.58576262464145
100
AcDbArc
 50
26.25172247240563
 51
30.14283916160249
  0
ARC
  5
82
100
AcDbEntity
  8
1
  6
CENTER_DASH_DASH
 62
             7
100
AcDbCircle
 10
5.85423655584935
 20
-1.38556511621004
 40
20.46711774690768
100
AcDbArc
 50
30.12975807985178
 51
35.59720555630381
  0
ARC
  5
81
100
AcDbEntity
  8
1
  6
CENTER_DASH_DASH
 62
             7
100
AcDbCircle
 10
5.87248968739835
 20
-1.37661338971814
 40
20.44706521668996
100
AcDbArc
 50
35.60658136978217
 51
41.07760357603232
  0
ARC
  5
80
100
AcDbEntity
  8
1
  6
CENTER_DASH_DASH
 62
             7
100
AcDbCircle
 10
4.03048035190303
 20
-2.97486256936807
 40
22.88578850002694
100
AcDbArc
 50
41.06369385911259
 51
46.13322228420596
  0
ARC
  5
7F
100
AcDbEntity
  8
1
  6
CENTER_DASH_DASH
 62
             7
100
AcDbCircle
 10
4.04674350288298
 20
-2.96224476235306
 40
22.86542174594704
100
AcDbArc
 50
46.1406921005544
 51
51.21323093437349
  0
ARC
  5
7E
100
AcDbEntity
  8
1
  6
CENTER_DASH_DASH
 62
             7
100
AcDbCircle
 10
2.36312262126677
 20
-5.04935854433192
 40
25.54695142321791
100
AcDbArc
 50
51.2021618877735
 51
55.90921048246927
  0
ARC
  5
7D
100
AcDbEntity
  8
1
  6
CENTER_DASH_DASH
 62
             7
100
AcDbCircle
 10
2.37553204140313
 20
-5.03577395405225
 40
25.5287459246617
100
AcDbArc
 50
55.91518637842842
 51
60.62447287018744
  0
ARC
  5
7C
100
AcDbEntity
  8
1
  6
CENTER_DASH_DASH
 62
             7
100
AcDbCircle
 10
1.09689988261188
 20
-7.29828014510855
 40
28.12755659433249
100
AcDbArc
 50
60.61551160591596
 51
65.02748983242111
  0
ARC
  5
7B
100
AcDbEntity
  8
1
  6
CENTER_DASH_DASH
 62
             7
100
AcDbCircle
 10
1.10521310327117
 20
-7.28614647343645
 40
28.11304769418006
100
AcDbArc
 50
65.03240843413647
 51
69.44590470707915
  0
ARC
  5
7A
100
AcDbEntity
  8
1
  6
CENTER_DASH_DASH
 62
             7
100
AcDbCircle
 10
0.32381333231662
 20
-9.36131277254784
 40
30.33045427825307
100
AcDbArc
 50
69.44008012713387
 51
72.23602001948581
  0
ARC
  5
79
100
AcDbEntity
  8
1
  6
CENTER_DASH_DASH
 62
             7
100
AcDbCircle
 10
0.35958291136225
 20
-9.25182603653293
 40
30.21527454583402
100
AcDbArc
 50
72.23727172862211
 51
75.04031282848914
  0
ARC
  5
78
100
AcDbEntity
  8
1
  6
CENTER_DASH_DASH
 62
             7
100
AcDbCircle
 10
0.33392961169292
 20
-9.35040362068779
 40
30.31713324166027
100
AcDbArc
 50
75.04156563974297
 51
77.83832451769413
  0
ARC
  5
77
100
AcDbEntity
  8
1
  6
CENTER_DASH_DASH
 62
             7
100
AcDbCircle
 10
0.02714966068284
 20
-10.76456737728357
 40
31.76418865127494
100
AcDbArc
 50
77.83476808070728
 51
80.54542514133092
  0
ARC
  5
76
100
AcDbEntity
  8
1
  6
CENTER_DASH_DASH
 62
             7
100
AcDbCircle
 10
0.04587103999464
 20
-10.65598097611009
 40
31.65400199960464
100
AcDbArc
 50
80.54656558954754
 51
83.26350977923399
  0
ARC
  5
75
100
AcDbEntity
  8
1
  6
CENTER_DASH_DASH
 62
             7
100
AcDbCircle
 10
0.03436672474475
 20
-10.75876823922727
 40
31.75742913393932
100
AcDbArc
 50
83.26465071377325
 51
85.97569241803976
  0
ARC
  5
74
100
AcDbEntity
  8
1
  6
CENTER_DASH_DASH
 62
             7
100
AcDbCircle
 10
-0.00311409336844
 20
-11.26472573570799
 40
32.26476957133234
100
AcDbArc
 50
85.97235308237761
 51
88.65474618460836
  0
ARC
  5
73
100
AcDbEntity
  8
1
  6
CENTER_DASH_DASH
 62
             7
100
AcDbCircle
 10
0.0
 20
-11.15853735331753
 40
32.15853735331753
100
AcDbArc
 50
88.65585127303027
 51
91.34414872696975
  0
ARC
  5
72
100
AcDbEntity
  8
1
  6
CENTER_DASH_DASH
 62
             7
100
AcDbCircle
 10
0.00311409336844
 20
-11.26472573570799
 40
32.26476957133234
100
AcDbArc
 50
91.34525381539166
 51
94.02764691762241
  0
ARC
  5
71
100
AcDbEntity
  8
1
  6
CENTER_DASH_DASH
 62
             7
100
AcDbCircle
 10
-0.03436672474646
 20
-10.75876823920826
 40
31.75742913392024
100
AcDbArc
 50
94.02430758195958
 51
96.7353492862277
  0
ARC
  5
70
100
AcDbEntity
  8
1
  6
CENTER_DASH_DASH
 62
             7
100
AcDbCircle
 10
-0.04587103999647
 20
-10.65598097609714
 40
31.65400199959155
100
AcDbArc
 50
96.73649022076548
 51
99.45343441045306
  0
ARC
  5
6F
100
AcDbEntity
  8
1
  6
CENTER_DASH_DASH
 62
             7
100
AcDbCircle
 10
-0.02714966068507
 20
-10.7645673772718
 40
31.76418865126296
100
AcDbArc
 50
99.45457485866861
 51
102.16523191929326
  0
ARC
  5
6E
100
AcDbEntity
  8
1
  6
CENTER_DASH_DASH
 62
             7
100
AcDbCircle
 10
-0.33392961169392
 20
-9.35040362068349
 40
30.31713324165585
100
AcDbArc
 50
102.16167548230574
 51
104.95843436025731
  0
ARC
  5
6D
100
AcDbEntity
  8
1
  6
CENTER_DASH_DASH
 62
             7
100
AcDbCircle
 10
-0.35958291136356
 20
-9.25182603652864
 40
30.21527454582954
100
AcDbArc
 50
104.95968717151057
 51
107.76272827137801
  0
ARC
  5
6C
100
AcDbEntity
  8
1
  6
CENTER_DASH_DASH
 62
             7
100
AcDbCircle
 10
-0.32381333231333
 20
-9.36131277255753
 40
30.3304542782633
100
AcDbArc
 50
107.76397998051452
 51
110.55991987286552
  0
ARC
  5
6B
100
AcDbEntity
  8
1
  6
CENTER_DASH_DASH
 62
             7
100
AcDbCircle
 10
-1.10521310327199
 20
-7.28614647343451
 40
28.11304769417795
100
AcDbArc
 50
110.55409529292065
 51
114.9675915658637
  0
ARC
  5
6A
100
AcDbEntity
  8
1
  6
CENTER_DASH_DASH
 62
             7
100
AcDbCircle
 10
-1.09689988261116
 20
-7.29828014510994
 40
28.12755659433406
100
AcDbArc
 50
114.97251016757905
 51
119.38448839408395
  0
ARC
  5
69
100
AcDbEntity
  8
1
  6
CENTER_DASH_DASH
 62
             7
100
AcDbCircle
 10
-2.37553204140551
 20
-5.03577395404832
 40
25.52874592465711
100
AcDbArc
 50
119.37552712981226
 51
124.08481362157212
  0
ARC
  5
68
100
AcDbEntity
  8
1
  6
CENTER_DASH_DASH
 62
             7
100
AcDbCircle
 10
-2.36312262126848
 20
-5.04935854432956
 40
25.54695142321499
100
AcDbArc
 50
124.09078951753052
 51
128.79783811222686
  0
ARC
  5
67
100
AcDbEntity
  8
1
  6
CENTER_DASH_DASH
 62
             7
100
AcDbCircle
 10
-4.04674350288558
 20
-2.96224476235008
 40
22.86542174594308
100
AcDbArc
 50
128.78676906562615
 51
133.85930789944609
  0
ARC
  5
66
100
AcDbEntity
  8
1
  6
CENTER_DASH_DASH
 62
             7
100
AcDbCircle
 10
-4.03048035190018
 20
-2.97486256937081
 40
22.88578850003089
100
AcDbArc
 50
133.86677771579443
 51
138.9363061408869
  0
ARC
  5
65
100
AcDbEntity
  8
1
  6
CENTER_DASH_DASH
 62
             7
100
AcDbCircle
 10
-5.87248968739542
 20
-1.37661338972059
 40
20.44706521669377
100
AcDbArc
 50
138.92239642396785
 51
144.39341863021704
  0
ARC
  5
64
100
AcDbEntity
  8
1
  6
CENTER_DASH_DASH
 62
             7
100
AcDbCircle
 10
-5.85423655584907
 20
-1.38556511621015
 40
20.46711774690798
100
AcDbArc
 50
144.40279444369642
 51
149.87024192014835
  0
ARC
  5
63
100
AcDbEntity
  8
1
  6
CENTER_DASH_DASH
 62
             7
100
AcDbCircle
 10
-7.48353372541827
 20
-0.44486981094751
 40
18.58576262463587
100
AcDbArc
 50
149.85716083839691
 51
153.74827752759492
  0
ARC
  5
62
100
AcDbEntity
  8
1
  6
CENTER_DASH_DASH
 62
             7
100
AcDbCircle
 10
-7.58888181378282
 20
-0.39169831661366
 40
18.46776164457549
100
AcDbArc
 50
153.75165999673501
 51
157.65933571992528
  0
ARC
  5
61
100
AcDbEntity
  8
1
  6
CENTER_DASH_DASH
 62
             7
100
AcDbCircle
 10
-7.45905617185696
 20
-0.44386651481239
 40
18.60767242403048
100
AcDbArc
 50
157.66271020155762
 51
161.550771572363
  0
ARC
  5
60
100
AcDbEntity
  8
1
  6
CENTER_DASH_DASH
 62
             7
100
AcDbCircle
 10
-8.62887491462483
 20
-0.05709284401433
 40
17.37557744932312
100
AcDbArc
 50
161.53985517984262
 51
165.61345959310651
  0
ARC
  5
5F
100
AcDbEntity
  8
1
  6
CENTER_DASH_DASH
 62
             7
100
AcDbCircle
 10
-8.7505869268525
 20
-0.02466609527898
 40
17.2496253500523
100
AcDbArc
 50
165.61734265124292
 51
169.71075468829494
  0
ARC
  5
5E
100
AcDbEntity
  8
1
  6
CENTER_DASH_DASH
 62
             7
100
AcDbCircle
 10
-8.61419309979482
 20
-0.04823064505506
 40
17.38803485259261
100
AcDbArc
 50
169.71463216405823
 51
173.78629048960653
  0
ARC
  5
5D
100
AcDbEntity
  8
1
  6
CENTER_DASH_DASH
 62
             7
100
AcDbCircle
 10
-9.03446520108215
 20
-0.00604998633602
 40
16.96566666555161
100
AcDbArc
 50
173.77428050826342
 51
177.91475994623181
  0
ARC
  5
5C
100
AcDbEntity
  8
1
  6
CENTER_DASH_DASH
 62
             7
100
AcDbCircle
 10
-9.16769869509759
 20
0.0
 40
16.83230130490241
100
AcDbArc
 50
177.91883821499641
 51
-177.91883821499641
  0
ARC
  5
5B
100
AcDbEntity
  8
1
  6
CENTER_DASH_DASH
 62
             7
100
AcDbCircle
 10
-9.0344652010767
 20
0.00604998633641
 40
16.96566666555708
100
AcDbArc
 50
-177.91475994623113
 51
-173.77428050826407
  0
ARC
  5
5A
100
AcDbEntity
  8
1
  6
CENTER_DASH_DASH
 62
             7
100
AcDbCircle
 10
-8.6141930997976
 20
0.0482306450548
 40
17.38803485258982
100
AcDbArc
 50
-173.78629048960639
 51
-169.71463216405741
  0
ARC
  5
59
100
AcDbEntity
  8
1
  6
CENTER_DASH_DASH
 62
             7
100
AcDbCircle
 10
-8.75058692686945
 20
0.02466609527515
 40
17.24962535003493
100
AcDbArc
 50
-169.71075468829738
 51
-165.61734265124133
  0
ARC
  5
58
100
AcDbEntity
  8
1
  6
CENTER_DASH_DASH
 62
             7
100
AcDbCircle
 10
-8.6288749146271
 20
0.05709284401361
 40
17.37557744932074
100
AcDbArc
 50
-165.61345959310702
 51
-161.53985517984253
  0
ARC
  5
57
100
AcDbEntity
  8
1
  6
CENTER_DASH_DASH
 62
             7
100
AcDbCircle
 10
-7.45905617185394
 20
0.44386651481334
 40
18.60767242403365
100
AcDbArc
 50
-161.55077157236323
 51
-157.66271020155853
  0
ARC
  5
56
100
AcDbEntity
  8
1
  6
CENTER_DASH_DASH
 62
             7
100
AcDbCircle
 10
-7.58888181377656
 20
0.39169831661661
 40
18.46776164458242
100
AcDbArc
 50
-157.65933571992426
 51
-153.75165999673547
  0
ARC
  5
55
100
AcDbEntity
  8
1
  6
CENTER_DASH_DASH
 62
             7
100
AcDbCircle
 10
-7.48353372543233
 20
0.44486981093993
 40
18.58576262461991
100
AcDbArc
 50
-153.74827752759677
 51
-149.8571608383954
  0
ARC
  5
54
100
AcDbEntity
  8
1
  6
CENTER_DASH_DASH
 62
             7
100
AcDbCircle
 10
-5.8542365558487
 20
1.38556511621044
 40
20.46711774690844
100
AcDbArc
 50
-149.87024192014817
 51
-144.40279444369639
  0
ARC
  5
53
100
AcDbEntity
  8
1
  6
CENTER_DASH_DASH
 62
             7
100
AcDbCircle
 10
-5.87248968739616
 20
1.37661338972003
 40
20.44706521669285
100
AcDbArc
 50
-144.39341863021716
 51
-138.92239642396774
  0
ARC
  5
52
100
AcDbEntity
  8
1
  6
CENTER_DASH_DASH
 62
             7
100
AcDbCircle
 10
-4.03048035190325
 20
2.97486256936789
 40
22.88578850002665
100
AcDbArc
 50
-138.93630614088741
 51
-133.86677771579397
  0
ARC
  5
51
100
AcDbEntity
  8
1
  6
CENTER_DASH_DASH
 62
             7
100
AcDbCircle
 10
-4.04674350288497
 20
2.96224476235075
 40
22.86542174594399
100
AcDbArc
 50
-133.85930789944604
 51
-128.78676906562623
  0
ARC
  5
50
100
AcDbEntity
  8
1
  6
CENTER_DASH_DASH
 62
             7
100
AcDbCircle
 10
-2.36312262126895
 20
5.04935854432883
 40
25.54695142321413
100
AcDbArc
 50
-128.79783811222705
 51
-124.09078951753058
  0
ARC
  5
4F
100
AcDbEntity
  8
1
  6
CENTER_DASH_DASH
 62
             7
100
AcDbCircle
 10
-2.37553204140506
 20
5.0357739540492
 40
25.5287459246581
100
AcDbArc
 50
-124.08481362157183
 51
-119.37552712981216
  0
ARC
  5
4E
100
AcDbEntity
  8
1
  6
CENTER_DASH_DASH
 62
             7
100
AcDbCircle
 10
-1.09689988261228
 20
7.29828014510792
 40
28.12755659433175
100
AcDbArc
 50
-119.384488394084
 51
-114.97251016757869
  0
ARC
  5
4D
100
AcDbEntity
  8
1
  6
CENTER_DASH_DASH
 62
             7
100
AcDbCircle
 10
-1.1052131032716
 20
7.28614647343546
 40
28.11304769417898
100
AcDbArc
 50
-114.96759156586359
 51
-110.55409529292074
  0
ARC
  5
4C
100
AcDbEntity
  8
1
  6
CENTER_DASH_DASH
 62
             7
100
AcDbCircle
 10
-0.32381333231811
 20
9.3613127725435
 40
30.33045427824848
100
AcDbArc
 50
-110.55991987286637
 51
-107.76397998051401
  0
ARC
  5
4B
100
AcDbEntity
  8
1
  6
CENTER_DASH_DASH
 62
             7
100
AcDbCircle
 10
-0.35958291136041
 20
9.25182603653873
 40
30.2152745458401
100
AcDbArc
 50
-107.76272827137784
 51
-104.95968717151138
  0
ARC
  5
4A
100
AcDbEntity
  8
1
  6
CENTER_DASH_DASH
 62
             7
100
AcDbCircle
 10
-0.33392961169171
 20
9.35040362069302
 40
30.31713324166564
100
AcDbArc
 50
-104.9584343602567
 51
-102.16167548230602
  0
ARC
  5
49
100
AcDbEntity
  8
1
  6
CENTER_DASH_DASH
 62
             7
100
AcDbCircle
 10
-0.02714966068357
 20
10.76456737727963
 40
31.76418865127093
100
AcDbArc
 50
-102.16523191929294
 51
-99.45457485866895
  0
ARC
  5
48
100
AcDbEntity
  8
1
  6
CENTER_DASH_DASH
 62
             7
100
AcDbCircle
 10
-0.04587103999426
 20
10.65598097611265
 40
31.65400199960722
100
AcDbArc
 50
-99.45343441045237
 51
-96.73649022076616
  0
ARC
  5
47
100
AcDbEntity
  8
1
  6
CENTER_DASH_DASH
 62
             7
100
AcDbCircle
 10
-0.03436672474617
 20
10.75876823921215
 40
31.75742913392414
100
AcDbArc
 50
-96.7353492862274
 51
-94.0243075819596
  0
ARC
  5
46
100
AcDbEntity
  8
1
  6
CENTER_DASH_DASH
 62
             7
100
AcDbCircle
 10
0.00311409336884
 20
11.2647257357149
 40
32.26476957133927
100
AcDbArc
 50
-94.02764691762225
 51
-91.34525381539208
  0
ARC
  5
45
100
AcDbEntity
  8
1
  6
CENTER_DASH_DASH
 62
             7
100
AcDbCircle
 10
0.0
 20
11.15853735331759
 40
32.15853735331759
100
AcDbArc
 50
-91.34414872696975
 51
-88.65585127303027
  0
ARC
  5
44
100
AcDbEntity
  8
1
  6
CENTER_DASH_DASH
 62
             7
100
AcDbCircle
 10
-0.00311409336885
 20
11.26472573571486
 40
32.26476957133922
100
AcDbArc
 50
-88.65474618460793
 51
-85.97235308237775
  0
ARC
  5
43
100
AcDbEntity
  8
1
  6
CENTER_DASH_DASH
 62
             7
100
AcDbCircle
 10
0.03436672474442
 20
10.75876823923145
 40
31.75742913394352
100
AcDbArc
 50
-85.97569241803971
 51
-83.26465071377356
  0
ARC
  5
42
100
AcDbEntity
  8
1
  6
CENTER_DASH_DASH
 62
             7
100
AcDbCircle
 10
0.04587103999407
 20
10.65598097611288
 40
31.65400199960747
100
AcDbArc
 50
-83.26350977923357
 51
-80.54656558954737
  0
ARC
  5
41
100
AcDbEntity
  8
1
  6
CENTER_DASH_DASH
 62
             7
100
AcDbCircle
 10
0.02714966068492
 20
10.764567377273
 40
31.76418865126416
100
AcDbArc
 50
-80.54542514133151
 51
-77.83476808070694
  0
ARC
  5
40
100
AcDbEntity
  8
1
  6
CENTER_DASH_DASH
 62
             7
100
AcDbCircle
 10
0.3339296116961
 20
9.35040362067457
 40
30.31713324164667
100
AcDbArc
 50
-77.83832451769476
 51
-75.04156563974235
  0
ARC
  5
3F
100
AcDbEntity
  8
1
  6
CENTER_DASH_DASH
 62
             7
100
AcDbCircle
 10
0.35958291136347
 20
9.25182603652899
 40
30.2152745458299
100
AcDbArc
 50
-75.04031282848946
 51
-72.23727172862206
  0
ARC
  5
3E
100
AcDbEntity
  8
1
  6
CENTER_DASH_DASH
 62
             7
100
AcDbCircle
 10
0.32381333231722
 20
9.36131277254598
 40
30.33045427825112
100
AcDbArc
 50
-72.23602001948585
 51
-69.44008012713374
  0
ARC
  5
3D
100
AcDbEntity
  8
1
  6
CENTER_DASH_DASH
 62
             7
100
AcDbCircle
 10
1.10521310327237
 20
7.2861464734336
 40
28.11304769417698
100
AcDbArc
 50
-69.44590470707946
 51
-65.03240843413626
  0
ARC
  5
3C
100
AcDbEntity
  8
1
  6
CENTER_DASH_DASH
 62
             7
100
AcDbCircle
 10
1.09689988261331
 20
7.29828014510572
 40
28.12755659432933
100
AcDbArc
 50
-65.02748983242134
 51
-60.61551160591567
  0
ARC
  5
3B
100
AcDbEntity
  8
1
  6
CENTER_DASH_DASH
 62
             7
100
AcDbCircle
 10
2.37553204140373
 20
5.03577395405134
 40
25.52874592466062
100
AcDbArc
 50
-60.6244728701876
 51
-55.91518637842837
  0
ARC
  5
3A
100
AcDbEntity
  8
1
  6
CENTER_DASH_DASH
 62
             7
100
AcDbCircle
 10
2.36312262126871
 20
5.04935854432921
 40
25.54695142321457
100
AcDbArc
 50
-55.90921048246945
 51
-51.20216188777306
  0
ARC
  5
39
100
AcDbEntity
  8
1
  6
CENTER_DASH_DASH
 62
             7
100
AcDbCircle
 10
4.04674350288497
 20
2.9622447623507
 40
22.86542174594395
100
AcDbArc
 50
-51.21323093437366
 51
-46.14069210055392
  0
ARC
  5
38
100
AcDbEntity
  8
1
  6
CENTER_DASH_DASH
 62
             7
100
AcDbCircle
 10
4.03048035190316
 20
2.97486256936796
 40
22.88578850002677
100
AcDbArc
 50
-46.13322228420603
 51
-41.06369385911259
  0
ARC
  5
37
100
AcDbEntity
  8
1
  6
CENTER_DASH_DASH
 62
             7
100
AcDbCircle
 10
5.87248968739786
 20
1.37661338971861
 40
20.44706521669063
100
AcDbArc
 50
-41.0776035760324
 51
-35.60658136978243
  0
ARC
  5
36
100
AcDbEntity
  8
1
  6
CENTER_DASH_DASH
 62
             7
100
AcDbCircle
 10
5.85423655584767
 20
1.38556511621114
 40
20.46711774690968
100
AcDbArc
 50
-35.59720555630354
 51
-30.12975807985209
  0
ARC
  5
35
100
AcDbEntity
  8
1
  6
CENTER_DASH_DASH
 62
             7
100
AcDbCircle
 10
7.48353372541632
 20
0.44486981094854
 40
18.58576262463808
100
AcDbArc
 50
-30.14283916160279
 51
-26.25172247240519
  0
ARC
  5
34
100
AcDbEntity
  8
1
  6
CENTER_DASH_DASH
 62
             7
100
AcDbCircle
 10
7.5888818137807
 20
0.3916983166147
 40
18.46776164457787
100
AcDbArc
 50
-26.2483400032649
 51
-22.34066428007523
  0
ARC
  5
33
100
AcDbEntity
  8
1
  6
CENTER_DASH_DASH
 62
             7
100
AcDbCircle
 10
7.45905617185322
 20
0.44386651481369
 40
18.60767242403444
100
AcDbArc
 50
-22.33728979844173
 51
-18.44922842763712
  0
ARC
  5
32
100
AcDbEntity
  8
1
  6
CENTER_DASH_DASH
 62
             7
100
AcDbCircle
 10
8.62887491462221
 20
0.05709284401505
 40
17.37557744932583
100
AcDbArc
 50
-18.46014482015687
 51
-14.38654040689363
  0
ARC
  5
31
100
AcDbEntity
  8
1
  6
CENTER_DASH_DASH
 62
             7
100
AcDbCircle
 10
8.7505869268588
 20
0.0246660952775
 40
17.24962535004582
100
AcDbArc
 50
-14.38265734875752
 51
-10.28924531170397
  0
ARC
  5
30
100
AcDbEntity
  8
1
  6
CENTER_DASH_DASH
 62
             7
100
AcDbCircle
 10
8.61419309980246
 20
0.04823064505408
 40
17.3880348525849
100
AcDbArc
 50
-10.2853678359431
 51
-6.21370951039304
  0
ARC
  5
2F
100
AcDbEntity
  8
1
  6
CENTER_DASH_DASH
 62
             7
100
AcDbCircle
 10
9.03446520107687
 20
0.00604998633638
 40
16.96566666555691
100
AcDbArc
 50
-6.22571949173596
 51
-2.08524005376888
  0
ARC
  5
2E
100
AcDbEntity
  8
1
  6
CENTER_DASH_DASH
 62
             7
100
AcDbCircle
 10
9.16769869509688
 20
0.00000000000009
 40
16.83230130490312
100
AcDbArc
 50
-2.0811617850039
 51
2.08116178500323
  0
ARC
  5
2D
100
AcDbEntity
  8
1
  6
CENTER_DASH_DASH
 62
             7
100
AcDbCircle
 10
9.03446520107665
 20
-0.00604998633641
 40
16.96566666555714
100
AcDbArc
 50
2.08524005376888
 51
6.22571949173595
  0
LINE
  5
2C
100
AcDbEntity
  8
1
  6
DOT_CENTER
 62
             2
100
AcDbLine
 10
-28.0
 20
0.0
 11
0.0
 21
0.0
  0
LINE
  5
2B
100
AcDbEntity
  8
1
  6
DOT_CENTER
 62
             2
100
AcDbLine
 10
0.0
 20
-23.0
 11
0.0
 21
0.0
  0
LINE
  5
2A
100
AcDbEntity
  8
1
  6
DOT_CENTER
 62
             2
100
AcDbLine
 10
0.0
 20
0.0
 11
28.0
 21
0.0
  0
LINE
  5
29
100
AcDbEntity
  8
1
  6
DOT_CENTER
 62
             2
100
AcDbLine
 10
0.0
 20
0.0
 11
0.0
 21
23.0
  0
POINT
  5
28
100
AcDbEntity
  8
1
 62
             7
100
AcDbPoint
 10
0.0
 20
0.0
  0
ENDSEC
  0
SECTION
  2
OBJECTS
  0
DICTIONARY
  5
19
100
AcDbDictionary
  3
ACAD_GROUP
350
1A
  3
ACAD_MLINESTYLE
350
1B
  0
DICTIONARY
  5
1A
102
{ACAD_REACTORS
330
19
102
}
100
AcDbDictionary
  0
DICTIONARY
  5
1B
102
{ACAD_REACTORS
330
19
102
}
100
AcDbDictionary
  3
STANDARD
350
1C
  0
MLINESTYLE
  5
1C
102
{ACAD_REACTORS
330
1B
102
}
100
AcDbMlineStyle
  2
STANDARD
 70
             0
  3

 62
             0
 51
90.0
 52
90.0
 71
             2
 49
0.5
 62
           256
  6
BYLAYER
 49
-0.5
 62
           256
  6
BYLAYER
  0
ENDSEC
  0
EOF
