  0
SECTION
  2
HEADER
  9
$ACADVER
  1
AC1009
  9
$LIMMIN
 10
0.000000
 20
0.000000
  9
$LIMMAX
 10
41.700000
 20
20.500000
  0
ENDSEC
  0
SECTION
  2
TABLES
  0
TABLE
  2
LTYPE
 70
     4
  0
LTYPE
  2
CONTINUOUS
 70
     0
  3
Solid line
 72
     65
 73
     0
 40
0.000000
  0
LTYPE
  2
HIDDEN
 70
     0
  3
 _ _ _ _ _ _ _ _ _ _ _
 72
     65
 73
     2
 40
0.375000
 49
0.250000
 49
-0.125000
  0
LTYPE
  2
DASHED
 70
     0
  3
 ___ ___ ___ ___ ___ ___ ___ 
 72
     65
 73
     2
 40
0.750000
 49
0.500000
 49
-0.250000
  0
LTYPE
  2
CENTER
 70
     0
  3
___ _ ___ _ ___ _ ___
 72
     65
 73
     4
 40
2.000000
 49
1.250000
 49
-0.250000
 49
0.250000
 49
-0.250000
  0
LTYPE
  2
BORDER
 70
     0
  3
___ ___ . ___ ___ . ___ ___
 72
     65
 73
     6
 40
1.750000
 49
0.500000
 49
-0.250000
 49
0.500000
 49
-0.250000
 49
0.000000
 49
-0.250000
  0
LTYPE
  2
DOT
 70
     0
  3
.................
 72
     65
 73
     2
 40
0.250000
 49
0.000000
 49
-0.250000
  0
LTYPE
  2
DASHDOT
 70
     0
  3
__ . __ . __ . __
 72
     65
 73
     4
 40
1.000000
 49
0.500000
 49
-0.250000
 49
0.000000
 49
-0.250000
  0
LTYPE
  2
DIVIDE
 70
     0
  3
___ .. ___ .. ___ .. ___
 72
     65
 73
     6
 40
1.250000
 49
0.500000
 49
-0.250000
 49
0.000000
 49
-0.250000
 49
0.000000
 49
-0.250000
  0
ENDTAB
  0
TABLE
  2
LAYER
 70
     8
  0
LAYER
  2
BLACK
 70
     0
 62
     1
  6
CONTINUOUS
  0
LAYER
  2
WHITE
 70
     0
 62
     7
  6
CONTINUOUS
  0
LAYER
  2
RED
 70
     0
 62
     1
  6
CONTINUOUS
  0
LAYER
  2
YELLOW
 70
     0
 62
     2
  6
CONTINUOUS
  0
LAYER
  2
GREEN
 70
     0
 62
     3
  6
CONTINUOUS
  0
LAYER
  2
CYAN
 70
     0
 62
     4
  6
CONTINUOUS
  0
LAYER
  2
BLUE
 70
     0
 62
     5
  6
CONTINUOUS
  0
LAYER
  2
MAGENTA
 70
     0
 62
     6
  6
CONTINUOUS
  0
ENDTAB
  0
ENDSEC
  0
SECTION
  2
BLOCKS
  0
ENDSEC
  0
SECTION
  2
ENTITIES
  0
POINT
  8
CYAN
 10
20.850000
 20
11.250000
 30
0.000000
  0
LINE
  8
CYAN
 10
0.000000
 20
15.500000
 30
0.000000
 11
0.000000
 21
20.500000
 31
0.000000
  6
CONTINUOUS
  0
LINE
  8
CYAN
 10
0.000000
 20
20.500000
 30
0.000000
 11
41.700000
 21
20.500000
 31
0.000000
  6
CONTINUOUS
  0
LINE
  8
CYAN
 10
41.700000
 20
20.500000
 30
0.000000
 11
41.700000
 21
15.500000
 31
0.000000
  6
CONTINUOUS
  0
LINE
  8
CYAN
 10
41.700000
 20
15.500000
 30
0.000000
 11
40.700000
 21
15.500000
 31
0.000000
  6
CONTINUOUS
  0
ARC
  8
CYAN
 10
40.700000
 20
14.500000
 30
0.000000
 40
1.000000
 50
90.000000
 51
180.000000
  6
CONTINUOUS
  0
LINE
  8
CYAN
 10
39.700000
 20
14.500000
 30
0.000000
 11
39.700000
 21
9.600000
 31
0.000000
  6
CONTINUOUS
  0
ARC
  8
CYAN
 10
32.100000
 20
9.600000
 30
0.000000
 40
7.600000
 50
-90.000000
 51
0.000000
  6
CONTINUOUS
  0
LINE
  8
CYAN
 10
32.100000
 20
2.000000
 30
0.000000
 11
24.350000
 21
2.000000
 31
0.000000
  6
CONTINUOUS
  0
ARC
  8
CYAN
 10
24.350000
 20
1.000000
 30
0.000000
 40
1.000000
 50
90.000000
 51
180.000000
  6
CONTINUOUS
  0
LINE
  8
CYAN
 10
23.350000
 20
1.000000
 30
0.000000
 11
23.350000
 21
0.000000
 31
0.000000
  6
CONTINUOUS
  0
LINE
  8
CYAN
 10
23.350000
 20
0.000000
 30
0.000000
 11
18.350000
 21
0.000000
 31
0.000000
  6
CONTINUOUS
  0
LINE
  8
CYAN
 10
18.350000
 20
0.000000
 30
0.000000
 11
18.350000
 21
1.000000
 31
0.000000
  6
CONTINUOUS
  0
ARC
  8
CYAN
 10
17.350000
 20
1.000000
 30
0.000000
 40
1.000000
 50
0.000000
 51
90.000000
  6
CONTINUOUS
  0
LINE
  8
CYAN
 10
17.350000
 20
2.000000
 30
0.000000
 11
9.600000
 21
2.000000
 31
0.000000
  6
CONTINUOUS
  0
ARC
  8
CYAN
 10
9.600000
 20
9.600000
 30
0.000000
 40
7.600000
 50
180.000000
 51
270.000000
  6
CONTINUOUS
  0
LINE
  8
CYAN
 10
2.000000
 20
9.600000
 30
0.000000
 11
2.000000
 21
14.500000
 31
0.000000
  6
CONTINUOUS
  0
ARC
  8
CYAN
 10
1.000000
 20
14.500000
 30
0.000000
 40
1.000000
 50
0.000000
 51
90.000000
  6
CONTINUOUS
  0
LINE
  8
CYAN
 10
1.000000
 20
15.500000
 30
0.000000
 11
0.000000
 21
15.500000
 31
0.000000
  6
CONTINUOUS
  0
ENDSEC
  0
EOF
