  0
SECTION
  2
HEADER
  9
$ACADVER
  1
AC1009
  9
$LIMMIN
 10
0.000000
 20
0.000000
  9
$LIMMAX
 10
19.000000
 20
4.600000
  0
ENDSEC
  0
SECTION
  2
TABLES
  0
TABLE
  2
LTYPE
 70
     4
  0
LTYPE
  2
CONTINUOUS
 70
     0
  3
Solid line
 72
     65
 73
     0
 40
0.000000
  0
LTYPE
  2
HIDDEN
 70
     0
  3
 _ _ _ _ _ _ _ _ _ _ _
 72
     65
 73
     2
 40
0.375000
 49
0.250000
 49
-0.125000
  0
LTYPE
  2
DASHED
 70
     0
  3
 ___ ___ ___ ___ ___ ___ ___ 
 72
     65
 73
     2
 40
0.750000
 49
0.500000
 49
-0.250000
  0
LTYPE
  2
CENTER
 70
     0
  3
___ _ ___ _ ___ _ ___
 72
     65
 73
     4
 40
2.000000
 49
1.250000
 49
-0.250000
 49
0.250000
 49
-0.250000
  0
LTYPE
  2
BORDER
 70
     0
  3
___ ___ . ___ ___ . ___ ___
 72
     65
 73
     6
 40
1.750000
 49
0.500000
 49
-0.250000
 49
0.500000
 49
-0.250000
 49
0.000000
 49
-0.250000
  0
LTYPE
  2
DOT
 70
     0
  3
.................
 72
     65
 73
     2
 40
0.250000
 49
0.000000
 49
-0.250000
  0
LTYPE
  2
DASHDOT
 70
     0
  3
__ . __ . __ . __
 72
     65
 73
     4
 40
1.000000
 49
0.500000
 49
-0.250000
 49
0.000000
 49
-0.250000
  0
LTYPE
  2
DIVIDE
 70
     0
  3
___ .. ___ .. ___ .. ___
 72
     65
 73
     6
 40
1.250000
 49
0.500000
 49
-0.250000
 49
0.000000
 49
-0.250000
 49
0.000000
 49
-0.250000
  0
ENDTAB
  0
TABLE
  2
LAYER
 70
     8
  0
LAYER
  2
BLACK
 70
     0
 62
     1
  6
CONTINUOUS
  0
LAYER
  2
WHITE
 70
     0
 62
     7
  6
CONTINUOUS
  0
LAYER
  2
RED
 70
     0
 62
     1
  6
CONTINUOUS
  0
LAYER
  2
YELLOW
 70
     0
 62
     2
  6
CONTINUOUS
  0
LAYER
  2
GREEN
 70
     0
 62
     3
  6
CONTINUOUS
  0
LAYER
  2
CYAN
 70
     0
 62
     4
  6
CONTINUOUS
  0
LAYER
  2
BLUE
 70
     0
 62
     5
  6
CONTINUOUS
  0
LAYER
  2
MAGENTA
 70
     0
 62
     6
  6
CONTINUOUS
  0
ENDTAB
  0
ENDSEC
  0
SECTION
  2
BLOCKS
  0
ENDSEC
  0
SECTION
  2
ENTITIES
  0
POINT
  8
CYAN
 10
9.500000
 20
2.300000
 30
0.000000
  0
LINE
  8
CYAN
 10
8.000000
 20
4.300000
 30
0.000000
 11
8.000000
 21
4.400000
 31
0.000000
  6
CONTINUOUS
  0
ARC
  8
CYAN
 10
8.200000
 20
4.400000
 30
0.000000
 40
0.200000
 50
90.000000
 51
180.000000
  6
CONTINUOUS
  0
LINE
  8
CYAN
 10
8.200000
 20
4.600000
 30
0.000000
 11
10.800000
 21
4.600000
 31
0.000000
  6
CONTINUOUS
  0
ARC
  8
CYAN
 10
10.800000
 20
4.400000
 30
0.000000
 40
0.200000
 50
0.000000
 51
90.000000
  6
CONTINUOUS
  0
LINE
  8
CYAN
 10
11.000000
 20
4.400000
 30
0.000000
 11
11.000000
 21
4.300000
 31
0.000000
  6
CONTINUOUS
  0
ARC
  8
CYAN
 10
11.500000
 20
4.300000
 30
0.000000
 40
0.500000
 50
180.000000
 51
270.000000
  6
CONTINUOUS
  0
LINE
  8
CYAN
 10
11.500000
 20
3.800000
 30
0.000000
 11
19.000000
 21
3.800000
 31
0.000000
  6
CONTINUOUS
  0
LINE
  8
CYAN
 10
19.000000
 20
3.800000
 30
0.000000
 11
19.000000
 21
3.100000
 31
0.000000
  6
CONTINUOUS
  0
LINE
  8
CYAN
 10
19.000000
 20
3.100000
 30
0.000000
 11
17.900000
 21
3.100000
 31
0.000000
  6
CONTINUOUS
  0
LINE
  8
CYAN
 10
17.900000
 20
3.100000
 30
0.000000
 11
17.900000
 21
1.500000
 31
0.000000
  6
CONTINUOUS
  0
LINE
  8
CYAN
 10
17.900000
 20
1.500000
 30
0.000000
 11
19.000000
 21
1.500000
 31
0.000000
  6
CONTINUOUS
  0
LINE
  8
CYAN
 10
19.000000
 20
1.500000
 30
0.000000
 11
19.000000
 21
0.800000
 31
0.000000
  6
CONTINUOUS
  0
LINE
  8
CYAN
 10
19.000000
 20
0.800000
 30
0.000000
 11
11.500000
 21
0.800000
 31
0.000000
  6
CONTINUOUS
  0
ARC
  8
CYAN
 10
11.500000
 20
0.300000
 30
0.000000
 40
0.500000
 50
90.000000
 51
180.000000
  6
CONTINUOUS
  0
LINE
  8
CYAN
 10
11.000000
 20
0.300000
 30
0.000000
 11
11.000000
 21
0.200000
 31
0.000000
  6
CONTINUOUS
  0
ARC
  8
CYAN
 10
10.800000
 20
0.200000
 30
0.000000
 40
0.200000
 50
-90.000000
 51
0.000000
  6
CONTINUOUS
  0
LINE
  8
CYAN
 10
10.800000
 20
0.000000
 30
0.000000
 11
8.200000
 21
0.000000
 31
0.000000
  6
CONTINUOUS
  0
ARC
  8
CYAN
 10
8.200000
 20
0.200000
 30
0.000000
 40
0.200000
 50
180.000000
 51
270.000000
  6
CONTINUOUS
  0
LINE
  8
CYAN
 10
8.000000
 20
0.200000
 30
0.000000
 11
8.000000
 21
0.300000
 31
0.000000
  6
CONTINUOUS
  0
ARC
  8
CYAN
 10
7.500000
 20
0.300000
 30
0.000000
 40
0.500000
 50
0.000000
 51
90.000000
  6
CONTINUOUS
  0
LINE
  8
CYAN
 10
7.500000
 20
0.800000
 30
0.000000
 11
0.000000
 21
0.800000
 31
0.000000
  6
CONTINUOUS
  0
LINE
  8
CYAN
 10
0.000000
 20
0.800000
 30
0.000000
 11
0.000000
 21
1.500000
 31
0.000000
  6
CONTINUOUS
  0
LINE
  8
CYAN
 10
0.000000
 20
1.500000
 30
0.000000
 11
1.100000
 21
1.500000
 31
0.000000
  6
CONTINUOUS
  0
LINE
  8
CYAN
 10
1.100000
 20
1.500000
 30
0.000000
 11
1.100000
 21
3.100000
 31
0.000000
  6
CONTINUOUS
  0
LINE
  8
CYAN
 10
1.100000
 20
3.100000
 30
0.000000
 11
0.000000
 21
3.100000
 31
0.000000
  6
CONTINUOUS
  0
LINE
  8
CYAN
 10
0.000000
 20
3.100000
 30
0.000000
 11
0.000000
 21
3.800000
 31
0.000000
  6
CONTINUOUS
  0
LINE
  8
CYAN
 10
0.000000
 20
3.800000
 30
0.000000
 11
7.500000
 21
3.800000
 31
0.000000
  6
CONTINUOUS
  0
ARC
  8
CYAN
 10
7.500000
 20
4.300000
 30
0.000000
 40
0.500000
 50
-90.000000
 51
0.000000
  6
CONTINUOUS
  0
ENDSEC
  0
EOF
