  0
SECTION
  2
HEADER
  9
$ACADVER
  1
AC1009
  9
$LIMMIN
 10
0.000000
 20
0.000000
  9
$LIMMAX
 10
19.300000
 20
17.200000
  0
ENDSEC
  0
SECTION
  2
TABLES
  0
TABLE
  2
LTYPE
 70
     4
  0
LTYPE
  2
CONTINUOUS
 70
     0
  3
Solid line
 72
     65
 73
     0
 40
0.000000
  0
LTYPE
  2
HIDDEN
 70
     0
  3
 _ _ _ _ _ _ _ _ _ _ _
 72
     65
 73
     2
 40
0.375000
 49
0.250000
 49
-0.125000
  0
LTYPE
  2
DASHED
 70
     0
  3
 ___ ___ ___ ___ ___ ___ ___ 
 72
     65
 73
     2
 40
0.750000
 49
0.500000
 49
-0.250000
  0
LTYPE
  2
CENTER
 70
     0
  3
___ _ ___ _ ___ _ ___
 72
     65
 73
     4
 40
2.000000
 49
1.250000
 49
-0.250000
 49
0.250000
 49
-0.250000
  0
LTYPE
  2
BORDER
 70
     0
  3
___ ___ . ___ ___ . ___ ___
 72
     65
 73
     6
 40
1.750000
 49
0.500000
 49
-0.250000
 49
0.500000
 49
-0.250000
 49
0.000000
 49
-0.250000
  0
LTYPE
  2
DOT
 70
     0
  3
.................
 72
     65
 73
     2
 40
0.250000
 49
0.000000
 49
-0.250000
  0
LTYPE
  2
DASHDOT
 70
     0
  3
__ . __ . __ . __
 72
     65
 73
     4
 40
1.000000
 49
0.500000
 49
-0.250000
 49
0.000000
 49
-0.250000
  0
LTYPE
  2
DIVIDE
 70
     0
  3
___ .. ___ .. ___ .. ___
 72
     65
 73
     6
 40
1.250000
 49
0.500000
 49
-0.250000
 49
0.000000
 49
-0.250000
 49
0.000000
 49
-0.250000
  0
ENDTAB
  0
TABLE
  2
LAYER
 70
     8
  0
LAYER
  2
BLACK
 70
     0
 62
     1
  6
CONTINUOUS
  0
LAYER
  2
WHITE
 70
     0
 62
     7
  6
CONTINUOUS
  0
LAYER
  2
RED
 70
     0
 62
     1
  6
CONTINUOUS
  0
LAYER
  2
YELLOW
 70
     0
 62
     2
  6
CONTINUOUS
  0
LAYER
  2
GREEN
 70
     0
 62
     3
  6
CONTINUOUS
  0
LAYER
  2
CYAN
 70
     0
 62
     4
  6
CONTINUOUS
  0
LAYER
  2
BLUE
 70
     0
 62
     5
  6
CONTINUOUS
  0
LAYER
  2
MAGENTA
 70
     0
 62
     6
  6
CONTINUOUS
  0
ENDTAB
  0
ENDSEC
  0
SECTION
  2
BLOCKS
  0
ENDSEC
  0
SECTION
  2
ENTITIES
  0
LINE
  8
CYAN
 10
19.300000
 20
16.200000
 30
0.000000
 11
19.300000
 21
1.000000
 31
0.000000
  6
CONTINUOUS
  0
LINE
  8
CYAN
 10
19.300000
 20
1.000000
 30
0.000000
 11
12.650000
 21
1.000000
 31
0.000000
  6
CONTINUOUS
  0
LINE
  8
CYAN
 10
12.650000
 20
1.000000
 30
0.000000
 11
11.650000
 21
0.000000
 31
0.000000
  6
CONTINUOUS
  0
LINE
  8
CYAN
 10
11.650000
 20
0.000000
 30
0.000000
 11
7.650000
 21
0.000000
 31
0.000000
  6
CONTINUOUS
  0
LINE
  8
CYAN
 10
7.650000
 20
0.000000
 30
0.000000
 11
6.650000
 21
1.000000
 31
0.000000
  6
CONTINUOUS
  0
LINE
  8
CYAN
 10
6.650000
 20
1.000000
 30
0.000000
 11
0.000000
 21
1.000000
 31
0.000000
  6
CONTINUOUS
  0
LINE
  8
CYAN
 10
0.000000
 20
1.000000
 30
0.000000
 11
0.000000
 21
16.200000
 31
0.000000
  6
CONTINUOUS
  0
LINE
  8
CYAN
 10
0.000000
 20
16.200000
 30
0.000000
 11
6.650000
 21
16.200000
 31
0.000000
  6
CONTINUOUS
  0
LINE
  8
CYAN
 10
6.650000
 20
16.200000
 30
0.000000
 11
7.650000
 21
17.200000
 31
0.000000
  6
CONTINUOUS
  0
LINE
  8
CYAN
 10
7.650000
 20
17.200000
 30
0.000000
 11
11.650000
 21
17.200000
 31
0.000000
  6
CONTINUOUS
  0
LINE
  8
CYAN
 10
11.650000
 20
17.200000
 30
0.000000
 11
12.650000
 21
16.200000
 31
0.000000
  6
CONTINUOUS
  0
LINE
  8
CYAN
 10
12.650000
 20
16.200000
 30
0.000000
 11
19.300000
 21
16.200000
 31
0.000000
  6
CONTINUOUS
  0
ENDSEC
  0
EOF
