  0
SECTION
  2
HEADER
  9
$ACADVER
  1
AC1014
  9
$ACADMAINTVER
 70
             0
  9
$DWGCODEPAGE
  3
ANSI_1252
  9
$INSBASE
 10
0.0
 20
0.0
 30
0.0
  9
$EXTMIN
 10
1.00000000000000E+20
 20
1.00000000000000E+20
 30
1.00000000000000E+20
  9
$EXTMAX
 10
-1.00000000000000E+20
 20
-1.00000000000000E+20
 30
-1.00000000000000E+20
  9
$LIMMIN
 10
0.0
 20
0.0
  9
$LIMMAX
 10
0.0
 20
0.0
  9
$ORTHOMODE
 70
             0
  9
$REGENMODE
 70
             1
  9
$FILLMODE
 70
             1
  9
$QTEXTMODE
 70
             0
  9
$MIRRTEXT
 70
             1
  9
$DRAGMODE
 70
             2
  9
$LTSCALE
 40
1.0
  9
$OSMODE
 70
             0
  9
$ATTMODE
 70
             1
  9
$TEXTSIZE
 40
0.2
  9
$TRACEWID
 40
0.05
  9
$TEXTSTYLE
  7
STANDARD
  9
$CLAYER
  8
0
  9
$CELTYPE
  6
CONTINUOUS
  9
$CECOLOR
 62
           256
  9
$CELTSCALE
 40
1.0
  9
$DELOBJ
 70
             1
  9
$DISPSILH
 70
             0
  9
$DIMSCALE
 40
1.0
  9
$DIMASZ
 40
0.18
  9
$DIMEXO
 40
0.0625
  9
$DIMDLI
 40
0.38
  9
$DIMRND
 40
0.0
  9
$DIMDLE
 40
0.0
  9
$DIMEXE
 40
0.18
  9
$DIMTP
 40
0.0
  9
$DIMTM
 40
0.0
  9
$DIMTXT
 40
0.18
  9
$DIMCEN
 40
0.09
  9
$DIMTSZ
 40
0.0
  9
$DIMTOL
 70
             0
  9
$DIMLIM
 70
             0
  9
$DIMTIH
 70
             1
  9
$DIMTOH
 70
             1
  9
$DIMSE1
 70
             0
  9
$DIMSE2
 70
             0
  9
$DIMTAD
 70
             0
  9
$DIMZIN
 70
             0
  9
$DIMBLK
  1

  9
$DIMASO
 70
             1
  9
$DIMSHO
 70
             1
  9
$DIMPOST
  1

  9
$DIMAPOST
  1

  9
$DIMALT
 70
             0
  9
$DIMALTD
 70
             2
  9
$DIMALTF
 40
25.4
  9
$DIMLFAC
 40
1.0
  9
$DIMTOFL
 70
             0
  9
$DIMTVP
 40
0.0
  9
$DIMTIX
 70
             0
  9
$DIMSOXD
 70
             0
  9
$DIMSAH
 70
             0
  9
$DIMBLK1
  1

  9
$DIMBLK2
  1

  9
$DIMSTYLE
  2
STANDARD
  9
$DIMCLRD
 70
             0
  9
$DIMCLRE
 70
             0
  9
$DIMCLRT
 70
             0
  9
$DIMTFAC
 40
1.0
  9
$DIMGAP
 40
0.09
  9
$DIMJUST
 70
             0
  9
$DIMSD1
 70
             0
  9
$DIMSD2
 70
             0
  9
$DIMTOLJ
 70
             1
  9
$DIMTZIN
 70
             0
  9
$DIMALTZ
 70
             0
  9
$DIMALTTZ
 70
             0
  9
$DIMFIT
 70
             3
  9
$DIMUPT
 70
             0
  9
$DIMUNIT
 70
             2
  9
$DIMDEC
 70
             4
  9
$DIMTDEC
 70
             4
  9
$DIMALTU
 70
             2
  9
$DIMALTTD
 70
             2
  9
$DIMTXSTY
  7
STANDARD
  9
$DIMAUNIT
 70
             0
  9
$LUNITS
 70
             2
  9
$LUPREC
 70
             4
  9
$SKETCHINC
 40
0.1
  9
$FILLETRAD
 40
0.0
  9
$AUNITS
 70
             0
  9
$AUPREC
 70
             0
  9
$MENU
  1
acad
  9
$ELEVATION
 40
0.0
  9
$PELEVATION
 40
0.0
  9
$THICKNESS
 40
0.0
  9
$LIMCHECK
 70
             0
  9
$BLIPMODE
 70
             1
  9
$CHAMFERA
 40
0.0
  9
$CHAMFERB
 40
0.0
  9
$CHAMFERC
 40
0.0
  9
$CHAMFERD
 40
0.0
  9
$SKPOLY
 70
             0
  9
$TDCREATE
 40
0.000000000
  9
$TDUPDATE
 40
0.000000000
  9
$TDINDWG
 40
0.0000000000
  9
$TDUSRTIMER
 40
0.0000000000
  9
$USRTIMER
 70
             1
  9
$ANGBASE
 50
0.0
  9
$ANGDIR
 70
             0
  9
$PDMODE
 70
             0
  9
$PDSIZE
 40
0.0
  9
$PLINEWID
 40
0.0
  9
$COORDS
 70
             0
  9
$SPLFRAME
 70
             0
  9
$SPLINETYPE
 70
             6
  9
$SPLINESEGS
 70
             8
  9
$ATTDIA
 70
             0
  9
$ATTREQ
 70
             1
  9
$HANDLING
 70
             1
  9
$HANDSEED
  5
80
  9
$SURFTAB1
 70
             6
  9
$SURFTAB2
 70
             6
  9
$SURFTYPE
 70
             6
  9
$SURFU
 70
             6
  9
$SURFV
 70
             6
  9
$UCSNAME
  2

  9
$UCSORG
 10
0.0
 20
0.0
 30
0.0
  9
$UCSXDIR
 10
1.0
 20
0.0
 30
0.0
  9
$UCSYDIR
 10
0.0
 20
1.0
 30
0.0
  9
$PUCSNAME
  2

  9
$PUCSORG
 10
0.0
 20
0.0
 30
0.0
  9
$PUCSXDIR
 10
1.0
 20
0.0
 30
0.0
  9
$PUCSYDIR
 10
0.0
 20
1.0
 30
0.0
  9
$USERI1
 70
             0
  9
$USERI2
 70
             0
  9
$USERI3
 70
             0
  9
$USERI4
 70
             0
  9
$USERI5
 70
             0
  9
$USERR1
 40
11.6
  9
$USERR2
 40
0.0
  9
$USERR3
 40
0.0
  9
$USERR4
 40
0.0
  9
$USERR5
 40
0.0
  9
$WORLDVIEW
 70
             1
  9
$SHADEDGE
 70
             3
  9
$SHADEDIF
 70
            70
  9
$TILEMODE
 70
             1
  9
$MAXACTVP
 70
            16
  9
$PINSBASE
 10
0.0
 20
0.0
 30
0.0
  9
$PLIMCHECK
 70
             0
  9
$PEXTMIN
 10
1.00000000000000E+20
 20
1.00000000000000E+20
 30
1.00000000000000E+20
  9
$PEXTMAX
 10
-1.00000000000000E+20
 20
-1.00000000000000E+20
 30
-1.00000000000000E+20
  9
$PLIMMIN
 10
0.0
 20
0.0
  9
$PLIMMAX
 10
12.0
 20
9.0
  9
$UNITMODE
 70
             0
  9
$VISRETAIN
 70
             0
  9
$PLINEGEN
 70
             1
  9
$PSLTSCALE
 70
             0
  9
$TREEDEPTH
 70
          3020
  9
$PICKSTYLE
 70
             1
  9
$CMLSTYLE
  2
STANDARD
  9
$CMLJUST
 70
             0
  9
$CMLSCALE
 40
1.0
  9
$PROXYGRAPHICS
 70
             0
  9
$MEASUREMENT
 70
             1
  0
ENDSEC
  0
SECTION
  2
CLASSES
  0
CLASS
  1
LWPOLYLINE
  2
AcDbPolyline
  3
"AutoCAD"
 90
        0
280
             0
281
             1
  0
CLASS
  1
IMAGE
  2
AcDbRasterImage
  3
ISM
 90
      127
280
             0
281
             1
  0
CLASS
  1
OLE2FRAME
  2
AcDbOle2Frame
  3
""
 90
        0
280
             0
281
             1
  0
CLASS
  1
HATCH
  2
AcDbHatch
  3
"ACAD_SEDONA"
 90
        0
280
             0
281
             1
  0
CLASS
  1
DICTIONARYVAR
  2
AcDbDictionaryVar
  3
"AutoCAD"
 90
        0
280
             0
281
             0
  0
CLASS
  1
RASTERVARIABLES
  2
AcDbRasterVariables
  3
ISM
 90
        0
280
             0
281
             0
  0
CLASS
  1
IMAGEDEF
  2
AcDbRasterImageDef
  3
ISM
 90
        0
280
             0
281
             0
  0
CLASS
  1
IMAGEDEF_REACTOR
  2
AcDbRasterImageDefReactor
  3
ISM
 90
        1
280
             0
281
             0
  0
CLASS
  1
IDBUFFER
  2
AcDbIdBuffer
  3
"Acad"
 90
        0
280
             0
281
             0
  0
CLASS
  1
SPATIAL_FILTER
  2
AcDbSpatialFilter
  3
"Acad"
 90
        0
280
             0
281
             0
  0
CLASS
  1
XRECORD
  2
AcDbXrecord
  3
"<Built In>"
 90
        0
280
             0
281
             0
  0
CLASS
  1
SORTENTSTABLE
  2
AcDbSortentsTable
  3
"AutoCAD"
 90
        0
280
             0
281
             0
  0
CLASS
  1
LAYER_INDEX
  2
AcDbLayerIndex
  3
"Acad"
 90
        0
280
             0
281
             0
  0
CLASS
  1
SPATIAL_INDEX
  2
AcDbSpatialIndex
  3
"Acad"
 90
        0
280
             0
281
             0
  0
CLASS
  1
OBJECT_PTR
  2
CAseDLPNTableRecord
  3
"ASE-LPNTableRecord"
 90
        1
280
             0
281
             0
  0
CLASS
  1
LAYOUT
  2
AcDbLayout
  3
"AutoCAD 2000"
 90
        1
280
             0
281
             0
  0
CLASS
  1
PLOTSETTINGS
  2
AcDbPlotSettings
  3
"AutoCAD 2000"
 90
        1
280
             0
281
             0
  0
CLASS
  1
ACDBDICTIONARYWDFLT
  2
AcDbDictionaryWithDefault
  3
"AutoCAD 2000"
 90
        1
280
             0
281
             0
  0
CLASS
  1
ACDBPLACEHOLDER
  2
AcDbPlaceHolder
  3
"AutoCAD 2000"
 90
        1
280
             0
281
             0
  0
ENDSEC
  0
SECTION
  2
TABLES
  0
TABLE
  2
VPORT
  5
7
100
AcDbSymbolTable
 70
             1
  0
VPORT
  5
15
100
AcDbSymbolTableRecord
100
AcDbViewportTableRecord
  2
*ACTIVE
 70
             0
 10
0.0
 20
0.0
 11
1.0
 21
1.0
 12
0.0
 22
0.0
 13
0.0
 23
0.0
 14
1.0
 24
1.0
 15
0.0
 25
0.0
 16
0.0
 26
0.0
 36
1.0
 17
0.0
 27
0.0
 37
0.0
 40
23.33593314763233
 41
1.60267857142857
 42
50.0
 43
0.0
 44
0.0
 50
0.0
 51
0.0
 71
             0
 72
           100
 73
             1
 74
             1
 75
             0
 76
             0
 77
             0
 78
             0
  0
ENDTAB
  0
TABLE
  2
LTYPE
  5
4
100
AcDbSymbolTable
 70
            10
  0
LTYPE
  5
11
100
AcDbSymbolTableRecord
100
AcDbLinetypeTableRecord
  2
BYBLOCK
 70
            64
  3

 72
            65
 73
             0
 40
0.0
  0
LTYPE
  5
12
100
AcDbSymbolTableRecord
100
AcDbLinetypeTableRecord
  2
BYLAYER
 70
            64
  3

 72
            65
 73
             0
 40
0.0
  0
LTYPE
  5
13
100
AcDbSymbolTableRecord
100
AcDbLinetypeTableRecord
  2
CONTINUOUS
 70
            64
  3
Solid line
 72
            65
 73
             0
 40
0.0
  0
LTYPE
  5
1D
100
AcDbSymbolTableRecord
100
AcDbLinetypeTableRecord
  2
DASHED
 70
            64
  3
Dashed
 72
            65
 73
             2
 40
15.0
 49
12.0
 74
             0
 49
-3.0
 74
             0
  0
LTYPE
  5
1E
100
AcDbSymbolTableRecord
100
AcDbLinetypeTableRecord
  2
DOTTED
 70
            64
  3
Dotted
 72
            65
 73
             2
 40
3.5
 49
0.5
 74
             0
 49
-3.0
 74
             0
  0
LTYPE
  5
1F
100
AcDbSymbolTableRecord
100
AcDbLinetypeTableRecord
  2
DOT_CENTER
 70
            64
  3
Dot_Center
 72
            65
 73
             4
 40
2.0
 49
1.25
 74
             0
 49
-0.25
 74
             0
 49
0.25
 74
             0
 49
-0.25
 74
             0
  0
LTYPE
  5
20
100
AcDbSymbolTableRecord
100
AcDbLinetypeTableRecord
  2
LONG_DASHED
 70
            64
  3
Long_Dashed
 72
            65
 73
             2
 40
2.0
 49
1.5
 74
             0
 49
-0.5
 74
             0
  0
LTYPE
  5
21
100
AcDbSymbolTableRecord
100
AcDbLinetypeTableRecord
  2
DASH_CENTER
 70
            64
  3
Dash_Center
 72
            65
 73
             4
 40
36.0
 49
24.0
 74
             0
 49
-3.0
 74
             0
 49
6.0
 74
             0
 49
-3.0
 74
             0
  0
LTYPE
  5
22
100
AcDbSymbolTableRecord
100
AcDbLinetypeTableRecord
  2
PHANTOM
 70
            64
  3
Phantom
 72
            65
 73
             6
 40
2.5
 49
1.25
 74
             0
 49
-0.25
 74
             0
 49
0.25
 74
             0
 49
-0.25
 74
             0
 49
0.25
 74
             0
 49
-0.25
 74
             0
  0
LTYPE
  5
23
100
AcDbSymbolTableRecord
100
AcDbLinetypeTableRecord
  2
CENTER_DASH_DASH
 70
            64
  3
Center_Dash_Dash
 72
            65
 73
             6
 40
22.0
 49
12.0
 74
             0
 49
-3.0
 74
             0
 49
0.5
 74
             0
 49
-3.0
 74
             0
 49
0.5
 74
             0
 49
-3.0
 74
             0
  0
ENDTAB
  0
TABLE
  2
LAYER
  5
2
100
AcDbSymbolTable
 70
             2
  0
LAYER
  5
14
100
AcDbSymbolTableRecord
100
AcDbLayerTableRecord
  2
0
 70
             0
 62
             7
  6
CONTINUOUS
  0
LAYER
  5
24
100
AcDbSymbolTableRecord
100
AcDbLayerTableRecord
  2
1
 70
             0
 62
             7
  6
CONTINUOUS
  0
ENDTAB
  0
TABLE
  2
STYLE
  5
3
100
AcDbSymbolTable
 70
             1
  0
STYLE
  5
17
100
AcDbSymbolTableRecord
100
AcDbTextStyleTableRecord
  2
STANDARD
 70
             0
 40
0.0
 41
1.0
 50
0.0
 71
             0
 42
0.0
  3
txt
  4

  0
ENDTAB
  0
TABLE
  2
VIEW
  5
5
100
AcDbSymbolTable
 70
             0
  0
ENDTAB
  0
TABLE
  2
UCS
  5
6
100
AcDbSymbolTable
 70
             0
  0
ENDTAB
  0
TABLE
  2
APPID
  5
8
100
AcDbSymbolTable
 70
             1
  0
APPID
  5
16
100
AcDbSymbolTableRecord
100
AcDbRegAppTableRecord
  2
ACAD
 70
             0
  0
ENDTAB
  0
TABLE
  2
DIMSTYLE
  5
9
100
AcDbSymbolTable
 70
             1
  0
DIMSTYLE
105
18
100
AcDbSymbolTableRecord
100
AcDbDimStyleTableRecord
  2
STANDARD
 70
             0
  3

  4

  5

  6

  7

 40
1.0
 41
0.18
 42
0.0625
 43
0.38
 44
0.18
 45
0.0
 46
0.0
 47
0.0
 48
0.0
 71
             0
 72
             0
 73
             1
 74
             1
 75
             0
 76
             0
 77
             0
 78
             0
140
0.18
141
0.09
142
0.0
143
25.4
144
1.0
145
0.0
146
1.0
147
0.09
170
             0
171
             2
172
             0
173
             0
174
             0
175
             0
176
             0
177
             0
178
             0
270
             2
271
             4
272
             4
273
             2
274
             2
275
             0
280
             0
281
             0
282
             0
283
             1
284
             0
285
             0
286
             0
287
             0
288
             0
340
17
  0
ENDTAB
  0
TABLE
  2
BLOCK_RECORD
  5
1
100
AcDbSymbolTable
 70
             0
  0
BLOCK_RECORD
  5
A
100
AcDbSymbolTableRecord
100
AcDbBlockTableRecord
  2
*MODEL_SPACE
  0
BLOCK_RECORD
  5
B
100
AcDbSymbolTableRecord
100
AcDbBlockTableRecord
  2
*PAPER_SPACE
  0
ENDTAB
  0
ENDSEC
  0
SECTION
  2
BLOCKS
  0
BLOCK
  5
D
100
AcDbEntity
  8
0
100
AcDbBlockBegin
  2
*MODEL_SPACE
 70
             0
 10
0.0
 20
0.0
 30
0.0
  3
*MODEL_SPACE
  1

  0
ENDBLK
  5
E
100
AcDbEntity
  8
0
100
AcDbBlockEnd
  0
BLOCK
  5
F
100
AcDbEntity
 67
             1
  8
0
100
AcDbBlockBegin
  2
*PAPER_SPACE
 70
             0
 10
0.0
 20
0.0
 30
0.0
  3
*PAPER_SPACE
  1

  0
ENDBLK
  5
10
100
AcDbEntity
 67
             1
  8
0
100
AcDbBlockEnd
  0
ENDSEC
  0
SECTION
  2
ENTITIES
  0
ARC
  5
7E
100
AcDbEntity
  8
1
  6
CONTINUOUS
 62
             7
100
AcDbCircle
 10
10.71456691285492
 20
-0.10237545015707
 40
4.29398589273866
100
AcDbArc
 50
10.22942331205047
 51
16.40044253183618
  0
ARC
  5
7D
100
AcDbEntity
  8
1
  6
CONTINUOUS
 62
             7
100
AcDbCircle
 10
10.80431797977345
 20
-0.07699847549016
 40
4.20072159394968
100
AcDbArc
 50
16.41403676993023
 51
22.67608313134172
  0
ARC
  5
7C
100
AcDbEntity
  8
1
  6
CONTINUOUS
 62
             7
100
AcDbCircle
 10
10.75154953751418
 20
-0.10015968696637
 40
4.25834024338887
100
AcDbArc
 50
22.68990797409157
 51
28.89532532106137
  0
ARC
  5
7B
100
AcDbEntity
  8
1
  6
CONTINUOUS
 62
             7
100
AcDbCircle
 10
9.23814242000801
 20
-0.93183426144285
 40
5.98520925819338
100
AcDbArc
 50
28.8650700130256
 51
33.76338982121759
  0
ARC
  5
7A
100
AcDbEntity
  8
1
  6
CONTINUOUS
 62
             7
100
AcDbCircle
 10
9.3149467451307
 20
-0.88132600212927
 40
5.89328811146359
100
AcDbArc
 50
33.77015254801832
 51
38.71928343970529
  0
ARC
  5
79
100
AcDbEntity
  8
1
  6
CONTINUOUS
 62
             7
100
AcDbCircle
 10
9.28400257574704
 20
-0.90704748600733
 40
5.93352033602016
100
AcDbArc
 50
38.72616521519528
 51
43.65289556701099
  0
ARC
  5
78
100
AcDbEntity
  8
1
  6
CONTINUOUS
 62
             7
100
AcDbCircle
 10
7.19785840597396
 20
-2.89332500102787
 40
8.81402206435526
100
AcDbArc
 50
43.63405190724904
 51
49.27575286669261
  0
ARC
  5
77
100
AcDbEntity
  8
1
  6
CONTINUOUS
 62
             7
100
AcDbCircle
 10
7.22144515263018
 20
-2.86835224685117
 40
8.77970795189236
100
AcDbArc
 50
49.28608151193721
 51
54.94247570093023
  0
ARC
  5
76
100
AcDbEntity
  8
1
  6
CONTINUOUS
 62
             7
100
AcDbCircle
 10
4.94752793906119
 20
-6.10442958759367
 40
12.73481749233391
100
AcDbArc
 50
54.93088886043292
 51
59.33506259783059
  0
ARC
  5
75
100
AcDbEntity
  8
1
  6
CONTINUOUS
 62
             7
100
AcDbCircle
 10
4.96193315321228
 20
-6.08226515555311
 40
12.70840558150836
100
AcDbArc
 50
59.33996164320585
 51
63.75023615912838
  0
ARC
  5
74
100
AcDbEntity
  8
1
  6
CONTINUOUS
 62
             7
100
AcDbCircle
 10
2.89893603518805
 20
-10.26165885157753
 40
17.36923023945301
100
AcDbArc
 50
63.74440892318513
 51
67.32371101396002
  0
ARC
  5
73
100
AcDbEntity
  8
1
  6
CONTINUOUS
 62
             7
100
AcDbCircle
 10
2.90706215132325
 20
-10.24427242907387
 40
17.35005503073609
100
AcDbArc
 50
67.32633657765712
 51
70.9082756175596
  0
ARC
  5
72
100
AcDbEntity
  8
1
  6
CONTINUOUS
 62
             7
100
AcDbCircle
 10
1.34527020320973
 20
-14.75260789622475
 40
22.12124790662126
100
AcDbArc
 50
70.90492229759548
 51
73.95175988190447
  0
ARC
  5
71
100
AcDbEntity
  8
1
  6
CONTINUOUS
 62
             7
100
AcDbCircle
 10
1.34950790705917
 20
-14.7401346042747
 40
22.10808921783815
100
AcDbArc
 50
73.95337798212613
 51
77.00142449877495
  0
ARC
  5
70
100
AcDbEntity
  8
1
  6
CONTINUOUS
 62
             7
100
AcDbCircle
 10
0.41465250580386
 20
-18.7853682060473
 40
26.2599404483565
100
AcDbArc
 50
76.99920165699223
 51
79.71761845425259
  0
ARC
  5
6F
100
AcDbEntity
  8
1
  6
CONTINUOUS
 62
             7
100
AcDbCircle
 10
0.41663458739003
 20
-18.77739090140714
 40
26.25173746382601
100
AcDbArc
 50
79.71876713812955
 51
82.43775022213205
  0
ARC
  5
6E
100
AcDbEntity
  8
1
  6
CONTINUOUS
 62
             7
100
AcDbCircle
 10
0.04324989006566
 20
-21.58337889199355
 40
29.08245893864431
100
AcDbArc
 50
82.43605604765016
 51
84.97615113505728
  0
ARC
  5
6D
100
AcDbEntity
  8
1
  6
CONTINUOUS
 62
             7
100
AcDbCircle
 10
0.04406809724159
 20
-21.57950106723099
 40
29.07852436435328
100
AcDbArc
 50
84.97708801442371
 51
87.51741223718348
  0
ARC
  5
6C
100
AcDbEntity
  8
1
  6
CONTINUOUS
 62
             7
100
AcDbCircle
 10
-0.00022987701172
 20
-22.58327141857368
 40
30.08327141945197
100
AcDbArc
 50
87.51593179725299
 51
89.99956218250352
  0
ARC
  5
6B
100
AcDbEntity
  8
1
  6
CONTINUOUS
 62
             7
100
AcDbCircle
 10
0.00022987701168
 20
-22.58327141856983
 40
30.08327141944812
100
AcDbArc
 50
90.00043781749641
 51
92.48406820274725
  0
ARC
  5
6A
100
AcDbEntity
  8
1
  6
CONTINUOUS
 62
             7
100
AcDbCircle
 10
-0.04406809724169
 20
-21.57950106722907
 40
29.07852436435136
100
AcDbArc
 50
92.48258776281649
 51
95.02291198557641
  0
ARC
  5
69
100
AcDbEntity
  8
1
  6
CONTINUOUS
 62
             7
100
AcDbCircle
 10
-0.04324989006597
 20
-21.5833788919912
 40
29.08245893864193
100
AcDbArc
 50
95.02384886494249
 51
97.56394395234985
  0
ARC
  5
68
100
AcDbEntity
  8
1
  6
CONTINUOUS
 62
             7
100
AcDbCircle
 10
-0.41663458738907
 20
-18.77739090141337
 40
26.25173746383231
100
AcDbArc
 50
97.56224977786823
 51
100.28123286187008
  0
ARC
  5
67
100
AcDbEntity
  8
1
  6
CONTINUOUS
 62
             7
100
AcDbCircle
 10
-0.41465250580343
 20
-18.78536820604953
 40
26.25994044835877
100
AcDbArc
 50
100.28238154574746
 51
103.0007983430076
  0
ARC
  5
66
100
AcDbEntity
  8
1
  6
CONTINUOUS
 62
             7
100
AcDbCircle
 10
-1.3495079070594
 20
-14.74013460427378
 40
22.10808921783719
100
AcDbArc
 50
102.99857550122499
 51
106.04662201787396
  0
ARC
  5
65
100
AcDbEntity
  8
1
  6
CONTINUOUS
 62
             7
100
AcDbCircle
 10
-1.34527020320926
 20
-14.75260789622607
 40
22.12124790662266
100
AcDbArc
 50
106.04824011809576
 51
109.09507770240454
  0
ARC
  5
64
100
AcDbEntity
  8
1
  6
CONTINUOUS
 62
             7
100
AcDbCircle
 10
-2.9070621513234
 20
-10.24427242907327
 40
17.35005503073547
100
AcDbArc
 50
109.09172438244056
 51
112.67366342234317
  0
ARC
  5
63
100
AcDbEntity
  8
1
  6
CONTINUOUS
 62
             7
100
AcDbCircle
 10
-2.89893603518815
 20
-10.26165885157748
 40
17.36923023945291
100
AcDbArc
 50
112.67628898603972
 51
116.25559107681464
  0
ARC
  5
62
100
AcDbEntity
  8
1
  6
CONTINUOUS
 62
             7
100
AcDbCircle
 10
-4.96193315321122
 20
-6.08226515555518
 40
12.70840558151068
100
AcDbArc
 50
116.24976384087171
 51
120.66003835679348
  0
ARC
  5
61
100
AcDbEntity
  8
1
  6
CONTINUOUS
 62
             7
100
AcDbCircle
 10
-4.94752793905957
 20
-6.10442958759612
 40
12.73481749233684
100
AcDbArc
 50
120.66493740217008
 51
125.06911113956671
  0
ARC
  5
60
100
AcDbEntity
  8
1
  6
CONTINUOUS
 62
             7
100
AcDbCircle
 10
-7.22144515263074
 20
-2.86835224685043
 40
8.77970795189144
100
AcDbArc
 50
125.05752429906956
 51
130.71391848806317
  0
ARC
  5
5F
100
AcDbEntity
  8
1
  6
CONTINUOUS
 62
             7
100
AcDbCircle
 10
-7.19785840597419
 20
-2.89332500102757
 40
8.81402206435489
100
AcDbArc
 50
130.72424713330756
 51
136.36594809275138
  0
ARC
  5
5E
100
AcDbEntity
  8
1
  6
CONTINUOUS
 62
             7
100
AcDbCircle
 10
-9.28400257574739
 20
-0.90704748600701
 40
5.93352033601968
100
AcDbArc
 50
136.34710443298891
 51
141.27383478480493
  0
ARC
  5
5D
100
AcDbEntity
  8
1
  6
CONTINUOUS
 62
             7
100
AcDbCircle
 10
-9.31494674513332
 20
-0.88132600212741
 40
5.89328811146037
100
AcDbArc
 50
141.28071656029286
 51
146.22984745198261
  0
ARC
  5
5C
100
AcDbEntity
  8
1
  6
CONTINUOUS
 62
             7
100
AcDbCircle
 10
-9.2381424200073
 20
-0.93183426144327
 40
5.98520925819421
100
AcDbArc
 50
146.23661017878283
 51
151.1349299869741
  0
ARC
  5
5B
100
AcDbEntity
  8
1
  6
CONTINUOUS
 62
             7
100
AcDbCircle
 10
-10.7515495375151
 20
-0.10015968696596
 40
4.25834024338787
100
AcDbArc
 50
151.10467467893753
 51
157.31009202590883
  0
ARC
  5
5A
100
AcDbEntity
  8
1
  6
CONTINUOUS
 62
             7
100
AcDbCircle
 10
-10.80431797977395
 20
-0.07699847549
 40
4.20072159394916
100
AcDbArc
 50
157.32391686865765
 51
163.58596323006984
  0
ARC
  5
59
100
AcDbEntity
  8
1
  6
CONTINUOUS
 62
             7
100
AcDbCircle
 10
-10.71456691285317
 20
-0.1023754501575
 40
4.29398589274045
100
AcDbArc
 50
163.59955746816493
 51
169.77057668794802
  0
ARC
  5
58
100
AcDbEntity
  8
1
  6
CONTINUOUS
 62
             7
100
AcDbCircle
 10
-11.26682039378243
 20
-0.00599880533903
 40
3.73339659134391
100
AcDbArc
 50
169.7210052695481
 51
176.5285197397146
  0
ARC
  5
57
100
AcDbEntity
  8
1
  6
CONTINUOUS
 62
             7
100
AcDbCircle
 10
-11.34642316544422
 20
-0.00000000000003
 40
3.65357683455578
100
AcDbArc
 50
176.54683197039606
 51
-176.54683197039697
  0
ARC
  5
56
100
AcDbEntity
  8
1
  6
CONTINUOUS
 62
             7
100
AcDbCircle
 10
-11.26682039378245
 20
0.00599880533906
 40
3.73339659134389
100
AcDbArc
 50
-176.52851973971411
 51
-169.72100526954762
  0
ARC
  5
55
100
AcDbEntity
  8
1
  6
CONTINUOUS
 62
             7
100
AcDbCircle
 10
-10.71456691285436
 20
0.10237545015726
 40
4.29398589273924
100
AcDbArc
 50
-169.77057668794842
 51
-163.5995574681636
  0
ARC
  5
54
100
AcDbEntity
  8
1
  6
CONTINUOUS
 62
             7
100
AcDbCircle
 10
-10.80431797977455
 20
0.07699847548977
 40
4.20072159394851
100
AcDbArc
 50
-163.5859632300706
 51
-157.32391686865739
  0
ARC
  5
53
100
AcDbEntity
  8
1
  6
CONTINUOUS
 62
             7
100
AcDbCircle
 10
-10.75154953751415
 20
0.10015968696639
 40
4.25834024338891
100
AcDbArc
 50
-157.31009202590838
 51
-151.10467467893864
  0
ARC
  5
52
100
AcDbEntity
  8
1
  6
CONTINUOUS
 62
             7
100
AcDbCircle
 10
-9.23814242000952
 20
0.93183426144191
 40
5.9852092581916
100
AcDbArc
 50
-151.13492998697527
 51
-146.23661017878186
  0
ARC
  5
51
100
AcDbEntity
  8
1
  6
CONTINUOUS
 62
             7
100
AcDbCircle
 10
-9.31494674513134
 20
0.88132600212884
 40
5.89328811146282
100
AcDbArc
 50
-146.22984745198178
 51
-141.28071656029411
  0
ARC
  5
50
100
AcDbEntity
  8
1
  6
CONTINUOUS
 62
             7
100
AcDbCircle
 10
-9.28400257574798
 20
0.90704748600645
 40
5.93352033601887
100
AcDbArc
 50
-141.27383478480564
 51
-136.34710443298891
  0
ARC
  5
4F
100
AcDbEntity
  8
1
  6
CONTINUOUS
 62
             7
100
AcDbCircle
 10
-7.19785840597388
 20
2.89332500102793
 40
8.81402206435537
100
AcDbArc
 50
-136.3659480927511
 51
-130.72424713330759
  0
ARC
  5
4E
100
AcDbEntity
  8
1
  6
CONTINUOUS
 62
             7
100
AcDbCircle
 10
-7.22144515263072
 20
2.8683522468505
 40
8.77970795189151
100
AcDbArc
 50
-130.71391848806306
 51
-125.05752429906943
  0
ARC
  5
4D
100
AcDbEntity
  8
1
  6
CONTINUOUS
 62
             7
100
AcDbCircle
 10
-4.94752793906176
 20
6.10442958759283
 40
12.73481749233288
100
AcDbArc
 50
-125.06911113956711
 51
-120.66493740216909
  0
ARC
  5
4C
100
AcDbEntity
  8
1
  6
CONTINUOUS
 62
             7
100
AcDbCircle
 10
-4.96193315321347
 20
6.08226515555089
 40
12.70840558150583
100
AcDbArc
 50
-120.66003835679457
 51
-116.24976384087122
  0
ARC
  5
4B
100
AcDbEntity
  8
1
  6
CONTINUOUS
 62
             7
100
AcDbCircle
 10
-2.89893603518935
 20
10.26165885157477
 40
17.36923023944996
100
AcDbArc
 50
-116.25559107681507
 51
-112.67628898603959
  0
ARC
  5
4A
100
AcDbEntity
  8
1
  6
CONTINUOUS
 62
             7
100
AcDbCircle
 10
-2.90706215132466
 20
10.24427242906994
 40
17.35005503073191
100
AcDbArc
 50
-112.67366342234359
 51
-109.09172438244026
  0
ARC
  5
49
100
AcDbEntity
  8
1
  6
CONTINUOUS
 62
             7
100
AcDbCircle
 10
-1.34527020321022
 20
14.75260789622311
 40
22.12124790661956
100
AcDbArc
 50
-109.09507770240474
 51
-106.04824011809552
  0
ARC
  5
48
100
AcDbEntity
  8
1
  6
CONTINUOUS
 62
             7
100
AcDbCircle
 10
-1.34950790705951
 20
14.74013460427335
 40
22.10808921783676
100
AcDbArc
 50
-106.04662201787404
 51
-102.99857550122499
  0
ARC
  5
47
100
AcDbEntity
  8
1
  6
CONTINUOUS
 62
             7
100
AcDbCircle
 10
-0.4146525058033
 20
18.78536820605034
 40
26.25994044835959
100
AcDbArc
 50
-103.00079834300749
 51
-100.28238154574743
  0
ARC
  5
46
100
AcDbEntity
  8
1
  6
CONTINUOUS
 62
             7
100
AcDbCircle
 10
-0.4166345873902
 20
18.7773909014061
 40
26.25173746382496
100
AcDbArc
 50
-100.28123286187048
 51
-97.56224977786786
  0
ARC
  5
45
100
AcDbEntity
  8
1
  6
CONTINUOUS
 62
             7
100
AcDbCircle
 10
-0.04324989006609
 20
21.58337889199015
 40
29.08245893864088
100
AcDbArc
 50
-97.56394395234987
 51
-95.02384886494244
  0
ARC
  5
44
100
AcDbEntity
  8
1
  6
CONTINUOUS
 62
             7
100
AcDbCircle
 10
-0.04406809724134
 20
21.57950106723394
 40
29.07852436435625
100
AcDbArc
 50
-95.02291198557626
 51
-92.48258776281676
  0
ARC
  5
43
100
AcDbEntity
  8
1
  6
CONTINUOUS
 62
             7
100
AcDbCircle
 10
0.00022987701174
 20
22.58327141857551
 40
30.08327141945379
100
AcDbArc
 50
-92.4840682027469
 51
-90.00043781749653
  0
ARC
  5
42
100
AcDbEntity
  8
1
  6
CONTINUOUS
 62
             7
100
AcDbCircle
 10
-0.00022987701179
 20
22.58327141857552
 40
30.08327141945381
100
AcDbArc
 50
-89.9995621825034
 51
-87.51593179725303
  0
ARC
  5
41
100
AcDbEntity
  8
1
  6
CONTINUOUS
 62
             7
100
AcDbCircle
 10
0.04406809724171
 20
21.57950106722851
 40
29.0785243643508
100
AcDbArc
 50
-87.51741223718352
 51
-84.97708801442356
  0
ARC
  5
40
100
AcDbEntity
  8
1
  6
CONTINUOUS
 62
             7
100
AcDbCircle
 10
0.04324989006568
 20
21.58337889199381
 40
29.08245893864456
100
AcDbArc
 50
-84.97615113505739
 51
-82.4360560476503
  0
ARC
  5
3F
100
AcDbEntity
  8
1
  6
CONTINUOUS
 62
             7
100
AcDbCircle
 10
0.41663458739007
 20
18.77739090140686
 40
26.25173746382573
100
AcDbArc
 50
-82.4377502221321
 51
-79.71876713812955
  0
ARC
  5
3E
100
AcDbEntity
  8
1
  6
CONTINUOUS
 62
             7
100
AcDbCircle
 10
0.41465250580423
 20
18.78536820604579
 40
26.25994044835494
100
AcDbArc
 50
-79.71761845425283
 51
-76.9992016569923
  0
ARC
  5
3D
100
AcDbEntity
  8
1
  6
CONTINUOUS
 62
             7
100
AcDbCircle
 10
1.34950790705983
 20
14.74013460427213
 40
22.10808921783549
100
AcDbArc
 50
-77.00142449877517
 51
-73.95337798212594
  0
ARC
  5
3C
100
AcDbEntity
  8
1
  6
CONTINUOUS
 62
             7
100
AcDbCircle
 10
1.34527020320964
 20
14.75260789622501
 40
22.12124790662154
100
AcDbArc
 50
-73.95175988190445
 51
-70.90492229759551
  0
ARC
  5
3B
100
AcDbEntity
  8
1
  6
CONTINUOUS
 62
             7
100
AcDbCircle
 10
2.90706215132305
 20
10.24427242907417
 40
17.35005503073644
100
AcDbArc
 50
-70.90827561755935
 51
-67.32633657765695
  0
ARC
  5
3A
100
AcDbEntity
  8
1
  6
CONTINUOUS
 62
             7
100
AcDbCircle
 10
2.89893603518845
 20
10.2616588515768
 40
17.36923023945218
100
AcDbArc
 50
-67.32371101396031
 51
-63.74440892318529
  0
ARC
  5
39
100
AcDbEntity
  8
1
  6
CONTINUOUS
 62
             7
100
AcDbCircle
 10
4.96193315321344
 20
6.082265155551
 40
12.70840558150595
100
AcDbArc
 50
-63.75023615912897
 51
-59.33996164320557
  0
ARC
  5
38
100
AcDbEntity
  8
1
  6
CONTINUOUS
 62
             7
100
AcDbCircle
 10
4.94752793906116
 20
6.10442958759373
 40
12.73481749233397
100
AcDbArc
 50
-59.33506259783067
 51
-54.93088886043304
  0
ARC
  5
37
100
AcDbEntity
  8
1
  6
CONTINUOUS
 62
             7
100
AcDbCircle
 10
7.22144515263129
 20
2.86835224684972
 40
8.77970795189055
100
AcDbArc
 50
-54.94247570093079
 51
-49.28608151193655
  0
ARC
  5
36
100
AcDbEntity
  8
1
  6
CONTINUOUS
 62
             7
100
AcDbCircle
 10
7.19785840597438
 20
2.89332500102738
 40
8.81402206435462
100
AcDbArc
 50
-49.27575286669259
 51
-43.63405190724861
  0
ARC
  5
35
100
AcDbEntity
  8
1
  6
CONTINUOUS
 62
             7
100
AcDbCircle
 10
9.28400257574613
 20
0.90704748600809
 40
5.93352033602134
100
AcDbArc
 50
-43.65289556701028
 51
-38.72616521519557
  0
ARC
  5
34
100
AcDbEntity
  8
1
  6
CONTINUOUS
 62
             7
100
AcDbCircle
 10
9.31494674513077
 20
0.88132600212925
 40
5.89328811146351
100
AcDbArc
 50
-38.71928343970554
 51
-33.77015254801857
  0
ARC
  5
33
100
AcDbEntity
  8
1
  6
CONTINUOUS
 62
             7
100
AcDbCircle
 10
9.23814242000632
 20
0.93183426144388
 40
5.98520925819536
100
AcDbArc
 50
-33.76338982121699
 51
-28.86507001302653
  0
ARC
  5
32
100
AcDbEntity
  8
1
  6
CONTINUOUS
 62
             7
100
AcDbCircle
 10
10.75154953751493
 20
0.10015968696601
 40
4.25834024338804
100
AcDbArc
 50
-28.89532532106203
 51
-22.68990797409104
  0
ARC
  5
31
100
AcDbEntity
  8
1
  6
CONTINUOUS
 62
             7
100
AcDbCircle
 10
10.80431797977488
 20
0.07699847548966
 40
4.20072159394817
100
AcDbArc
 50
-22.67608313134308
 51
-16.41403676992918
  0
ARC
  5
30
100
AcDbEntity
  8
1
  6
CONTINUOUS
 62
             7
100
AcDbCircle
 10
10.71456691285387
 20
0.10237545015737
 40
4.29398589273974
100
AcDbArc
 50
-16.40044253183587
 51
-10.22942331205175
  0
ARC
  5
2F
100
AcDbEntity
  8
1
  6
CONTINUOUS
 62
             7
100
AcDbCircle
 10
11.2668203937818
 20
0.0059988053391
 40
3.73339659134454
100
AcDbArc
 50
-10.27899473045116
 51
-3.47148026028596
  0
ARC
  5
2E
100
AcDbEntity
  8
1
  6
CONTINUOUS
 62
             7
100
AcDbCircle
 10
11.3464231654452
 20
0.0
 40
3.6535768345548
100
AcDbArc
 50
-3.45316802960441
 51
3.45316802960441
  0
ARC
  5
2D
100
AcDbEntity
  8
1
  6
CONTINUOUS
 62
             7
100
AcDbCircle
 10
11.26682039378077
 20
-0.00599880533923
 40
3.73339659134558
100
AcDbArc
 50
3.47148026028687
 51
10.27899473045024
  0
LINE
  5
2C
100
AcDbEntity
  8
1
  6
DOT_CENTER
 62
             2
100
AcDbLine
 10
-17.0
 20
0.0
 11
0.0
 21
0.0
  0
LINE
  5
2B
100
AcDbEntity
  8
1
  6
DOT_CENTER
 62
             2
100
AcDbLine
 10
0.0
 20
-9.5
 11
0.0
 21
0.0
  0
LINE
  5
2A
100
AcDbEntity
  8
1
  6
DOT_CENTER
 62
             2
100
AcDbLine
 10
0.0
 20
0.0
 11
17.0
 21
0.0
  0
LINE
  5
29
100
AcDbEntity
  8
1
  6
DOT_CENTER
 62
             2
100
AcDbLine
 10
0.0
 20
0.0
 11
0.0
 21
9.5
  0
POINT
  5
28
100
AcDbEntity
  8
1
 62
             7
100
AcDbPoint
 10
0.0
 20
0.0
  0
ENDSEC
  0
SECTION
  2
OBJECTS
  0
DICTIONARY
  5
19
100
AcDbDictionary
  3
ACAD_GROUP
350
1A
  3
ACAD_MLINESTYLE
350
1B
  0
DICTIONARY
  5
1A
102
{ACAD_REACTORS
330
19
102
}
100
AcDbDictionary
  0
DICTIONARY
  5
1B
102
{ACAD_REACTORS
330
19
102
}
100
AcDbDictionary
  3
STANDARD
350
1C
  0
MLINESTYLE
  5
1C
102
{ACAD_REACTORS
330
1B
102
}
100
AcDbMlineStyle
  2
STANDARD
 70
             0
  3

 62
             0
 51
90.0
 52
90.0
 71
             2
 49
0.5
 62
           256
  6
BYLAYER
 49
-0.5
 62
           256
  6
BYLAYER
  0
ENDSEC
  0
EOF
