  0
SECTION
  2
HEADER
  9
$ACADVER
  1
AC1009
  9
$LIMMIN
 10
0.000000
 20
0.000000
  9
$LIMMAX
 10
46.000000
 20
26.000000
  0
ENDSEC
  0
SECTION
  2
TABLES
  0
TABLE
  2
LTYPE
 70
     4
  0
LTYPE
  2
CONTINUOUS
 70
     0
  3
Solid line
 72
     65
 73
     0
 40
0.000000
  0
LTYPE
  2
HIDDEN
 70
     0
  3
 _ _ _ _ _ _ _ _ _ _ _
 72
     65
 73
     2
 40
0.375000
 49
0.250000
 49
-0.125000
  0
LTYPE
  2
DASHED
 70
     0
  3
 ___ ___ ___ ___ ___ ___ ___ 
 72
     65
 73
     2
 40
0.750000
 49
0.500000
 49
-0.250000
  0
LTYPE
  2
CENTER
 70
     0
  3
___ _ ___ _ ___ _ ___
 72
     65
 73
     4
 40
2.000000
 49
1.250000
 49
-0.250000
 49
0.250000
 49
-0.250000
  0
LTYPE
  2
BORDER
 70
     0
  3
___ ___ . ___ ___ . ___ ___
 72
     65
 73
     6
 40
1.750000
 49
0.500000
 49
-0.250000
 49
0.500000
 49
-0.250000
 49
0.000000
 49
-0.250000
  0
LTYPE
  2
DOT
 70
     0
  3
.................
 72
     65
 73
     2
 40
0.250000
 49
0.000000
 49
-0.250000
  0
LTYPE
  2
DASHDOT
 70
     0
  3
__ . __ . __ . __
 72
     65
 73
     4
 40
1.000000
 49
0.500000
 49
-0.250000
 49
0.000000
 49
-0.250000
  0
LTYPE
  2
DIVIDE
 70
     0
  3
___ .. ___ .. ___ .. ___
 72
     65
 73
     6
 40
1.250000
 49
0.500000
 49
-0.250000
 49
0.000000
 49
-0.250000
 49
0.000000
 49
-0.250000
  0
ENDTAB
  0
TABLE
  2
LAYER
 70
     8
  0
LAYER
  2
BLACK
 70
     0
 62
     1
  6
CONTINUOUS
  0
LAYER
  2
WHITE
 70
     0
 62
     7
  6
CONTINUOUS
  0
LAYER
  2
RED
 70
     0
 62
     1
  6
CONTINUOUS
  0
LAYER
  2
YELLOW
 70
     0
 62
     2
  6
CONTINUOUS
  0
LAYER
  2
GREEN
 70
     0
 62
     3
  6
CONTINUOUS
  0
LAYER
  2
CYAN
 70
     0
 62
     4
  6
CONTINUOUS
  0
LAYER
  2
BLUE
 70
     0
 62
     5
  6
CONTINUOUS
  0
LAYER
  2
MAGENTA
 70
     0
 62
     6
  6
CONTINUOUS
  0
ENDTAB
  0
TABLE
  2
APPID
 70
     1
  0
APPID
  2
TC_BEND_DATA
 70
     0
  0
ENDTAB
  0
ENDSEC
  0
SECTION
  2
BLOCKS
  0
ENDSEC
  0
SECTION
  2
ENTITIES
  0
ARC
  8
CYAN
 10
23.000000
 20
-14.014629
 30
0.000000
 40
40.014629
 50
79.768849
 51
100.231151
  6
CONTINUOUS
  0
ARC
  8
CYAN
 10
21.721391
 20
-6.930522
 30
0.000000
 40
32.816059
 50
100.231151
 51
111.900872
  6
CONTINUOUS
  0
ARC
  8
CYAN
 10
17.750094
 20
2.947957
 30
0.000000
 40
22.169203
 50
111.900872
 51
127.050906
  6
CONTINUOUS
  0
ARC
  8
CYAN
 10
12.155066
 20
10.359100
 30
0.000000
 40
12.883225
 50
127.050906
 51
148.881790
  6
CONTINUOUS
  0
ARC
  8
CYAN
 10
7.823206
 20
12.974124
 30
0.000000
 40
7.823248
 50
148.881790
 51
179.810487
  6
CONTINUOUS
  0
ARC
  8
CYAN
 10
7.823206
 20
13.025876
 30
0.000000
 40
7.823248
 50
-179.810487
 51
-148.881790
  6
CONTINUOUS
  0
ARC
  8
CYAN
 10
12.155066
 20
15.640900
 30
0.000000
 40
12.883225
 50
-148.881790
 51
-127.050906
  6
CONTINUOUS
  0
ARC
  8
CYAN
 10
17.750094
 20
23.052043
 30
0.000000
 40
22.169203
 50
-127.050906
 51
-111.900872
  6
CONTINUOUS
  0
ARC
  8
CYAN
 10
21.721391
 20
32.930522
 30
0.000000
 40
32.816059
 50
-111.900872
 51
-100.231151
  6
CONTINUOUS
  0
ARC
  8
CYAN
 10
23.000000
 20
40.014629
 30
0.000000
 40
40.014629
 50
-100.231151
 51
-79.768849
  6
CONTINUOUS
  0
ARC
  8
CYAN
 10
24.278609
 20
32.930522
 30
0.000000
 40
32.816059
 50
-79.768849
 51
-68.099128
  6
CONTINUOUS
  0
ARC
  8
CYAN
 10
28.249906
 20
23.052043
 30
0.000000
 40
22.169203
 50
-68.099128
 51
-52.949094
  6
CONTINUOUS
  0
ARC
  8
CYAN
 10
33.844934
 20
15.640900
 30
0.000000
 40
12.883225
 50
-52.949094
 51
-31.118210
  6
CONTINUOUS
  0
ARC
  8
CYAN
 10
38.176794
 20
13.025876
 30
0.000000
 40
7.823248
 50
-31.118210
 51
-0.189513
  6
CONTINUOUS
  0
ARC
  8
CYAN
 10
38.176794
 20
12.974124
 30
0.000000
 40
7.823248
 50
0.189513
 51
31.118210
  6
CONTINUOUS
  0
ARC
  8
CYAN
 10
33.844934
 20
10.359100
 30
0.000000
 40
12.883225
 50
31.118210
 51
52.949094
  6
CONTINUOUS
  0
ARC
  8
CYAN
 10
28.249906
 20
2.947957
 30
0.000000
 40
22.169203
 50
52.949094
 51
68.099128
  6
CONTINUOUS
  0
ARC
  8
CYAN
 10
24.278609
 20
-6.930522
 30
0.000000
 40
32.816059
 50
68.099128
 51
79.768849
  6
CONTINUOUS
  0
ENDSEC
  0
EOF
