  0
SECTION
  2
HEADER
  9
$ACADVER
  1
AC1014
  9
$ACADMAINTVER
 70
             0
  9
$DWGCODEPAGE
  3
ANSI_1252
  9
$INSBASE
 10
0.0
 20
0.0
 30
0.0
  9
$EXTMIN
 10
1.00000000000000E+20
 20
1.00000000000000E+20
 30
1.00000000000000E+20
  9
$EXTMAX
 10
-1.00000000000000E+20
 20
-1.00000000000000E+20
 30
-1.00000000000000E+20
  9
$LIMMIN
 10
0.0
 20
0.0
  9
$LIMMAX
 10
0.0
 20
0.0
  9
$ORTHOMODE
 70
             0
  9
$REGENMODE
 70
             1
  9
$FILLMODE
 70
             1
  9
$QTEXTMODE
 70
             0
  9
$MIRRTEXT
 70
             1
  9
$DRAGMODE
 70
             2
  9
$LTSCALE
 40
1.0
  9
$OSMODE
 70
             0
  9
$ATTMODE
 70
             1
  9
$TEXTSIZE
 40
0.2
  9
$TRACEWID
 40
0.05
  9
$TEXTSTYLE
  7
STANDARD
  9
$CLAYER
  8
0
  9
$CELTYPE
  6
CONTINUOUS
  9
$CECOLOR
 62
           256
  9
$CELTSCALE
 40
1.0
  9
$DELOBJ
 70
             1
  9
$DISPSILH
 70
             0
  9
$DIMSCALE
 40
1.0
  9
$DIMASZ
 40
0.18
  9
$DIMEXO
 40
0.0625
  9
$DIMDLI
 40
0.38
  9
$DIMRND
 40
0.0
  9
$DIMDLE
 40
0.0
  9
$DIMEXE
 40
0.18
  9
$DIMTP
 40
0.0
  9
$DIMTM
 40
0.0
  9
$DIMTXT
 40
0.18
  9
$DIMCEN
 40
0.09
  9
$DIMTSZ
 40
0.0
  9
$DIMTOL
 70
             0
  9
$DIMLIM
 70
             0
  9
$DIMTIH
 70
             1
  9
$DIMTOH
 70
             1
  9
$DIMSE1
 70
             0
  9
$DIMSE2
 70
             0
  9
$DIMTAD
 70
             0
  9
$DIMZIN
 70
             0
  9
$DIMBLK
  1

  9
$DIMASO
 70
             1
  9
$DIMSHO
 70
             1
  9
$DIMPOST
  1

  9
$DIMAPOST
  1

  9
$DIMALT
 70
             0
  9
$DIMALTD
 70
             2
  9
$DIMALTF
 40
25.4
  9
$DIMLFAC
 40
1.0
  9
$DIMTOFL
 70
             0
  9
$DIMTVP
 40
0.0
  9
$DIMTIX
 70
             0
  9
$DIMSOXD
 70
             0
  9
$DIMSAH
 70
             0
  9
$DIMBLK1
  1

  9
$DIMBLK2
  1

  9
$DIMSTYLE
  2
STANDARD
  9
$DIMCLRD
 70
             0
  9
$DIMCLRE
 70
             0
  9
$DIMCLRT
 70
             0
  9
$DIMTFAC
 40
1.0
  9
$DIMGAP
 40
0.09
  9
$DIMJUST
 70
             0
  9
$DIMSD1
 70
             0
  9
$DIMSD2
 70
             0
  9
$DIMTOLJ
 70
             1
  9
$DIMTZIN
 70
             0
  9
$DIMALTZ
 70
             0
  9
$DIMALTTZ
 70
             0
  9
$DIMFIT
 70
             3
  9
$DIMUPT
 70
             0
  9
$DIMUNIT
 70
             2
  9
$DIMDEC
 70
             4
  9
$DIMTDEC
 70
             4
  9
$DIMALTU
 70
             2
  9
$DIMALTTD
 70
             2
  9
$DIMTXSTY
  7
STANDARD
  9
$DIMAUNIT
 70
             0
  9
$LUNITS
 70
             2
  9
$LUPREC
 70
             4
  9
$SKETCHINC
 40
0.1
  9
$FILLETRAD
 40
0.0
  9
$AUNITS
 70
             0
  9
$AUPREC
 70
             0
  9
$MENU
  1
acad
  9
$ELEVATION
 40
0.0
  9
$PELEVATION
 40
0.0
  9
$THICKNESS
 40
0.0
  9
$LIMCHECK
 70
             0
  9
$BLIPMODE
 70
             1
  9
$CHAMFERA
 40
0.0
  9
$CHAMFERB
 40
0.0
  9
$CHAMFERC
 40
0.0
  9
$CHAMFERD
 40
0.0
  9
$SKPOLY
 70
             0
  9
$TDCREATE
 40
0.000000000
  9
$TDUPDATE
 40
0.000000000
  9
$TDINDWG
 40
0.0000000000
  9
$TDUSRTIMER
 40
0.0000000000
  9
$USRTIMER
 70
             1
  9
$ANGBASE
 50
0.0
  9
$ANGDIR
 70
             0
  9
$PDMODE
 70
             0
  9
$PDSIZE
 40
0.0
  9
$PLINEWID
 40
0.0
  9
$COORDS
 70
             0
  9
$SPLFRAME
 70
             0
  9
$SPLINETYPE
 70
             6
  9
$SPLINESEGS
 70
             8
  9
$ATTDIA
 70
             0
  9
$ATTREQ
 70
             1
  9
$HANDLING
 70
             1
  9
$HANDSEED
  5
7C
  9
$SURFTAB1
 70
             6
  9
$SURFTAB2
 70
             6
  9
$SURFTYPE
 70
             6
  9
$SURFU
 70
             6
  9
$SURFV
 70
             6
  9
$UCSNAME
  2

  9
$UCSORG
 10
0.0
 20
0.0
 30
0.0
  9
$UCSXDIR
 10
1.0
 20
0.0
 30
0.0
  9
$UCSYDIR
 10
0.0
 20
1.0
 30
0.0
  9
$PUCSNAME
  2

  9
$PUCSORG
 10
0.0
 20
0.0
 30
0.0
  9
$PUCSXDIR
 10
1.0
 20
0.0
 30
0.0
  9
$PUCSYDIR
 10
0.0
 20
1.0
 30
0.0
  9
$USERI1
 70
             0
  9
$USERI2
 70
             0
  9
$USERI3
 70
             0
  9
$USERI4
 70
             0
  9
$USERI5
 70
             0
  9
$USERR1
 40
11.6
  9
$USERR2
 40
0.0
  9
$USERR3
 40
0.0
  9
$USERR4
 40
0.0
  9
$USERR5
 40
0.0
  9
$WORLDVIEW
 70
             1
  9
$SHADEDGE
 70
             3
  9
$SHADEDIF
 70
            70
  9
$TILEMODE
 70
             1
  9
$MAXACTVP
 70
            16
  9
$PINSBASE
 10
0.0
 20
0.0
 30
0.0
  9
$PLIMCHECK
 70
             0
  9
$PEXTMIN
 10
1.00000000000000E+20
 20
1.00000000000000E+20
 30
1.00000000000000E+20
  9
$PEXTMAX
 10
-1.00000000000000E+20
 20
-1.00000000000000E+20
 30
-1.00000000000000E+20
  9
$PLIMMIN
 10
0.0
 20
0.0
  9
$PLIMMAX
 10
12.0
 20
9.0
  9
$UNITMODE
 70
             0
  9
$VISRETAIN
 70
             0
  9
$PLINEGEN
 70
             1
  9
$PSLTSCALE
 70
             0
  9
$TREEDEPTH
 70
          3020
  9
$PICKSTYLE
 70
             1
  9
$CMLSTYLE
  2
STANDARD
  9
$CMLJUST
 70
             0
  9
$CMLSCALE
 40
1.0
  9
$PROXYGRAPHICS
 70
             0
  9
$MEASUREMENT
 70
             1
  0
ENDSEC
  0
SECTION
  2
CLASSES
  0
CLASS
  1
LWPOLYLINE
  2
AcDbPolyline
  3
"AutoCAD"
 90
        0
280
             0
281
             1
  0
CLASS
  1
IMAGE
  2
AcDbRasterImage
  3
ISM
 90
      127
280
             0
281
             1
  0
CLASS
  1
OLE2FRAME
  2
AcDbOle2Frame
  3
""
 90
        0
280
             0
281
             1
  0
CLASS
  1
HATCH
  2
AcDbHatch
  3
"ACAD_SEDONA"
 90
        0
280
             0
281
             1
  0
CLASS
  1
DICTIONARYVAR
  2
AcDbDictionaryVar
  3
"AutoCAD"
 90
        0
280
             0
281
             0
  0
CLASS
  1
RASTERVARIABLES
  2
AcDbRasterVariables
  3
ISM
 90
        0
280
             0
281
             0
  0
CLASS
  1
IMAGEDEF
  2
AcDbRasterImageDef
  3
ISM
 90
        0
280
             0
281
             0
  0
CLASS
  1
IMAGEDEF_REACTOR
  2
AcDbRasterImageDefReactor
  3
ISM
 90
        1
280
             0
281
             0
  0
CLASS
  1
IDBUFFER
  2
AcDbIdBuffer
  3
"Acad"
 90
        0
280
             0
281
             0
  0
CLASS
  1
SPATIAL_FILTER
  2
AcDbSpatialFilter
  3
"Acad"
 90
        0
280
             0
281
             0
  0
CLASS
  1
XRECORD
  2
AcDbXrecord
  3
"<Built In>"
 90
        0
280
             0
281
             0
  0
CLASS
  1
SORTENTSTABLE
  2
AcDbSortentsTable
  3
"AutoCAD"
 90
        0
280
             0
281
             0
  0
CLASS
  1
LAYER_INDEX
  2
AcDbLayerIndex
  3
"Acad"
 90
        0
280
             0
281
             0
  0
CLASS
  1
SPATIAL_INDEX
  2
AcDbSpatialIndex
  3
"Acad"
 90
        0
280
             0
281
             0
  0
CLASS
  1
OBJECT_PTR
  2
CAseDLPNTableRecord
  3
"ASE-LPNTableRecord"
 90
        1
280
             0
281
             0
  0
CLASS
  1
LAYOUT
  2
AcDbLayout
  3
"AutoCAD 2000"
 90
        1
280
             0
281
             0
  0
CLASS
  1
PLOTSETTINGS
  2
AcDbPlotSettings
  3
"AutoCAD 2000"
 90
        1
280
             0
281
             0
  0
CLASS
  1
ACDBDICTIONARYWDFLT
  2
AcDbDictionaryWithDefault
  3
"AutoCAD 2000"
 90
        1
280
             0
281
             0
  0
CLASS
  1
ACDBPLACEHOLDER
  2
AcDbPlaceHolder
  3
"AutoCAD 2000"
 90
        1
280
             0
281
             0
  0
ENDSEC
  0
SECTION
  2
TABLES
  0
TABLE
  2
VPORT
  5
7
100
AcDbSymbolTable
 70
             1
  0
VPORT
  5
15
100
AcDbSymbolTableRecord
100
AcDbViewportTableRecord
  2
*ACTIVE
 70
             0
 10
0.0
 20
0.0
 11
1.0
 21
1.0
 12
0.0
 22
0.0
 13
0.0
 23
0.0
 14
1.0
 24
1.0
 15
0.0
 25
0.0
 16
0.0
 26
0.0
 36
1.0
 17
0.0
 27
0.0
 37
0.0
 40
47.35821727019501
 41
1.60267857142857
 42
50.0
 43
0.0
 44
0.0
 50
0.0
 51
0.0
 71
             0
 72
           100
 73
             1
 74
             1
 75
             0
 76
             0
 77
             0
 78
             0
  0
ENDTAB
  0
TABLE
  2
LTYPE
  5
4
100
AcDbSymbolTable
 70
            10
  0
LTYPE
  5
11
100
AcDbSymbolTableRecord
100
AcDbLinetypeTableRecord
  2
BYBLOCK
 70
            64
  3

 72
            65
 73
             0
 40
0.0
  0
LTYPE
  5
12
100
AcDbSymbolTableRecord
100
AcDbLinetypeTableRecord
  2
BYLAYER
 70
            64
  3

 72
            65
 73
             0
 40
0.0
  0
LTYPE
  5
13
100
AcDbSymbolTableRecord
100
AcDbLinetypeTableRecord
  2
CONTINUOUS
 70
            64
  3
Solid line
 72
            65
 73
             0
 40
0.0
  0
LTYPE
  5
1D
100
AcDbSymbolTableRecord
100
AcDbLinetypeTableRecord
  2
DASHED
 70
            64
  3
Dashed
 72
            65
 73
             2
 40
15.0
 49
12.0
 74
             0
 49
-3.0
 74
             0
  0
LTYPE
  5
1E
100
AcDbSymbolTableRecord
100
AcDbLinetypeTableRecord
  2
DOTTED
 70
            64
  3
Dotted
 72
            65
 73
             2
 40
3.5
 49
0.5
 74
             0
 49
-3.0
 74
             0
  0
LTYPE
  5
1F
100
AcDbSymbolTableRecord
100
AcDbLinetypeTableRecord
  2
DOT_CENTER
 70
            64
  3
Dot_Center
 72
            65
 73
             4
 40
2.0
 49
1.25
 74
             0
 49
-0.25
 74
             0
 49
0.25
 74
             0
 49
-0.25
 74
             0
  0
LTYPE
  5
20
100
AcDbSymbolTableRecord
100
AcDbLinetypeTableRecord
  2
LONG_DASHED
 70
            64
  3
Long_Dashed
 72
            65
 73
             2
 40
2.0
 49
1.5
 74
             0
 49
-0.5
 74
             0
  0
LTYPE
  5
21
100
AcDbSymbolTableRecord
100
AcDbLinetypeTableRecord
  2
DASH_CENTER
 70
            64
  3
Dash_Center
 72
            65
 73
             4
 40
36.0
 49
24.0
 74
             0
 49
-3.0
 74
             0
 49
6.0
 74
             0
 49
-3.0
 74
             0
  0
LTYPE
  5
22
100
AcDbSymbolTableRecord
100
AcDbLinetypeTableRecord
  2
PHANTOM
 70
            64
  3
Phantom
 72
            65
 73
             6
 40
2.5
 49
1.25
 74
             0
 49
-0.25
 74
             0
 49
0.25
 74
             0
 49
-0.25
 74
             0
 49
0.25
 74
             0
 49
-0.25
 74
             0
  0
LTYPE
  5
23
100
AcDbSymbolTableRecord
100
AcDbLinetypeTableRecord
  2
CENTER_DASH_DASH
 70
            64
  3
Center_Dash_Dash
 72
            65
 73
             6
 40
22.0
 49
12.0
 74
             0
 49
-3.0
 74
             0
 49
0.5
 74
             0
 49
-3.0
 74
             0
 49
0.5
 74
             0
 49
-3.0
 74
             0
  0
ENDTAB
  0
TABLE
  2
LAYER
  5
2
100
AcDbSymbolTable
 70
             2
  0
LAYER
  5
14
100
AcDbSymbolTableRecord
100
AcDbLayerTableRecord
  2
0
 70
             0
 62
             7
  6
CONTINUOUS
  0
LAYER
  5
24
100
AcDbSymbolTableRecord
100
AcDbLayerTableRecord
  2
1
 70
             0
 62
             7
  6
CONTINUOUS
  0
ENDTAB
  0
TABLE
  2
STYLE
  5
3
100
AcDbSymbolTable
 70
             1
  0
STYLE
  5
17
100
AcDbSymbolTableRecord
100
AcDbTextStyleTableRecord
  2
STANDARD
 70
             0
 40
0.0
 41
1.0
 50
0.0
 71
             0
 42
0.0
  3
txt
  4

  0
ENDTAB
  0
TABLE
  2
VIEW
  5
5
100
AcDbSymbolTable
 70
             0
  0
ENDTAB
  0
TABLE
  2
UCS
  5
6
100
AcDbSymbolTable
 70
             0
  0
ENDTAB
  0
TABLE
  2
APPID
  5
8
100
AcDbSymbolTable
 70
             1
  0
APPID
  5
16
100
AcDbSymbolTableRecord
100
AcDbRegAppTableRecord
  2
ACAD
 70
             0
  0
ENDTAB
  0
TABLE
  2
DIMSTYLE
  5
9
100
AcDbSymbolTable
 70
             1
  0
DIMSTYLE
105
18
100
AcDbSymbolTableRecord
100
AcDbDimStyleTableRecord
  2
STANDARD
 70
             0
  3

  4

  5

  6

  7

 40
1.0
 41
0.18
 42
0.0625
 43
0.38
 44
0.18
 45
0.0
 46
0.0
 47
0.0
 48
0.0
 71
             0
 72
             0
 73
             1
 74
             1
 75
             0
 76
             0
 77
             0
 78
             0
140
0.18
141
0.09
142
0.0
143
25.4
144
1.0
145
0.0
146
1.0
147
0.09
170
             0
171
             2
172
             0
173
             0
174
             0
175
             0
176
             0
177
             0
178
             0
270
             2
271
             4
272
             4
273
             2
274
             2
275
             0
280
             0
281
             0
282
             0
283
             1
284
             0
285
             0
286
             0
287
             0
288
             0
340
17
  0
ENDTAB
  0
TABLE
  2
BLOCK_RECORD
  5
1
100
AcDbSymbolTable
 70
             0
  0
BLOCK_RECORD
  5
A
100
AcDbSymbolTableRecord
100
AcDbBlockTableRecord
  2
*MODEL_SPACE
  0
BLOCK_RECORD
  5
B
100
AcDbSymbolTableRecord
100
AcDbBlockTableRecord
  2
*PAPER_SPACE
  0
ENDTAB
  0
ENDSEC
  0
SECTION
  2
BLOCKS
  0
BLOCK
  5
D
100
AcDbEntity
  8
0
100
AcDbBlockBegin
  2
*MODEL_SPACE
 70
             0
 10
0.0
 20
0.0
 30
0.0
  3
*MODEL_SPACE
  1

  0
ENDBLK
  5
E
100
AcDbEntity
  8
0
100
AcDbBlockEnd
  0
BLOCK
  5
F
100
AcDbEntity
 67
             1
  8
0
100
AcDbBlockBegin
  2
*PAPER_SPACE
 70
             0
 10
0.0
 20
0.0
 30
0.0
  3
*PAPER_SPACE
  1

  0
ENDBLK
  5
10
100
AcDbEntity
 67
             1
  8
0
100
AcDbBlockEnd
  0
ENDSEC
  0
SECTION
  2
ENTITIES
  0
ARC
  5
7A
100
AcDbEntity
  8
1
  6
CENTER_DASH_DASH
 62
             7
100
AcDbCircle
 10
25.9542340311448
 20
-0.32573234832366
 40
6.58066888344419
100
AcDbArc
 50
12.96949074236685
 51
20.22755779853014
  0
ARC
  5
79
100
AcDbEntity
  8
1
  6
CENTER_DASH_DASH
 62
             7
100
AcDbCircle
 10
26.16275765553261
 20
-0.25152302449603
 40
6.3593482081855
100
AcDbArc
 50
20.24976083222875
 51
27.675323348507
  0
ARC
  5
78
100
AcDbEntity
  8
1
  6
CENTER_DASH_DASH
 62
             7
100
AcDbCircle
 10
26.07505596376582
 20
-0.30045418137883
 40
6.45974339889406
100
AcDbArc
 50
27.69837685535303
 51
35.04677489499228
  0
ARC
  5
77
100
AcDbEntity
  8
1
  6
CENTER_DASH_DASH
 62
             7
100
AcDbCircle
 10
22.37226534728016
 20
-2.88454189695365
 40
10.97506171993419
100
AcDbArc
 50
34.99060754850751
 51
42.58801501163738
  0
ARC
  5
76
100
AcDbEntity
  8
1
  6
CENTER_DASH_DASH
 62
             7
100
AcDbCircle
 10
22.46384072570677
 20
-2.80691485495765
 40
10.85510953032667
100
AcDbArc
 50
42.61345103190681
 51
50.26674577913937
  0
ARC
  5
75
100
AcDbEntity
  8
1
  6
CENTER_DASH_DASH
 62
             7
100
AcDbCircle
 10
17.37995263490508
 20
-8.91138349783948
 40
18.79931636594553
100
AcDbArc
 50
50.24360615156937
 51
55.51121685244175
  0
ARC
  5
74
100
AcDbEntity
  8
1
  6
CENTER_DASH_DASH
 62
             7
100
AcDbCircle
 10
17.42908611536834
 20
-8.84471300105293
 40
18.71654269113403
100
AcDbArc
 50
55.51962242114587
 51
60.80275507578739
  0
ARC
  5
73
100
AcDbEntity
  8
1
  6
CENTER_DASH_DASH
 62
             7
100
AcDbCircle
 10
11.95485608651439
 20
-18.63176362872582
 40
29.93053137693741
100
AcDbArc
 50
60.79431631859161
 51
64.6547257452509
  0
ARC
  5
72
100
AcDbEntity
  8
1
  6
CENTER_DASH_DASH
 62
             7
100
AcDbCircle
 10
11.9817463460452
 20
-18.57900857068302
 40
29.87134335838304
100
AcDbArc
 50
64.65802285022906
 51
68.52353050231369
  0
ARC
  5
71
100
AcDbEntity
  8
1
  6
CENTER_DASH_DASH
 62
             7
100
AcDbCircle
 10
7.00813567336606
 20
-31.21293268998539
 40
43.44900282274637
100
AcDbArc
 50
68.51988802159468
 51
71.53302224701429
  0
ARC
  5
70
100
AcDbEntity
  8
1
  6
CENTER_DASH_DASH
 62
             7
100
AcDbCircle
 10
7.02193937493577
 20
-31.17534272266615
 40
43.4089760818412
100
AcDbArc
 50
71.53458762226443
 51
74.54957391278273
  0
ARC
  5
6F
100
AcDbEntity
  8
1
  6
CENTER_DASH_DASH
 62
             7
100
AcDbCircle
 10
3.25381837587072
 20
-44.8013323312759
 40
57.54638482227838
100
AcDbArc
 50
74.54766138627767
 51
77.04831088423791
  0
ARC
  5
6E
100
AcDbEntity
  8
1
  6
CENTER_DASH_DASH
 62
             7
100
AcDbCircle
 10
3.26063792747078
 20
-44.77568458614714
 40
57.51986111632791
100
AcDbArc
 50
77.04920503157467
 51
79.55062323827349
  0
ARC
  5
6D
100
AcDbEntity
  8
1
  6
CENTER_DASH_DASH
 62
             7
100
AcDbCircle
 10
1.00329198326366
 20
-57.00752931345154
 40
69.9582546779136
100
AcDbArc
 50
79.54942776865487
 51
81.74630407831744
  0
ARC
  5
6C
100
AcDbEntity
  8
1
  6
CENTER_DASH_DASH
 62
             7
100
AcDbCircle
 10
1.00634130680939
 20
-56.99166152594935
 40
69.94211350073201
100
AcDbArc
 50
81.74691012682952
 51
83.94412442925835
  0
ARC
  5
6B
100
AcDbEntity
  8
1
  6
CENTER_DASH_DASH
 62
             7
100
AcDbCircle
 10
0.10478331982861
 20
-65.47825229282753
 40
78.47645755003883
100
AcDbArc
 50
83.9432438771161
 51
85.97897108230686
  0
ARC
  5
6A
100
AcDbEntity
  8
1
  6
CENTER_DASH_DASH
 62
             7
100
AcDbCircle
 10
0.10597831474664
 20
-65.47066898607545
 40
78.46880911712921
100
AcDbArc
 50
85.97945320956292
 51
88.01531269898936
  0
ARC
  5
69
100
AcDbEntity
  8
1
  6
CENTER_DASH_DASH
 62
             7
100
AcDbCircle
 10
-0.00031799515627
 20
-68.50699182229887
 40
81.50699182291919
100
AcDbArc
 50
88.01455533912267
 51
89.99977646358978
  0
ARC
  5
68
100
AcDbEntity
  8
1
  6
CENTER_DASH_DASH
 62
             7
100
AcDbCircle
 10
0.00031799515611
 20
-68.50699182229278
 40
81.50699182291309
100
AcDbArc
 50
90.00022353641012
 51
91.98544466087739
  0
ARC
  5
67
100
AcDbEntity
  8
1
  6
CENTER_DASH_DASH
 62
             7
100
AcDbCircle
 10
-0.10597831474655
 20
-65.47066898607685
 40
78.46880911713062
100
AcDbArc
 50
91.98468730101065
 51
94.02054679043707
  0
ARC
  5
66
100
AcDbEntity
  8
1
  6
CENTER_DASH_DASH
 62
             7
100
AcDbCircle
 10
-0.10478331982866
 20
-65.47825229282691
 40
78.47645755003821
100
AcDbArc
 50
94.02102891769313
 51
96.05675612288391
  0
ARC
  5
65
100
AcDbEntity
  8
1
  6
CENTER_DASH_DASH
 62
             7
100
AcDbCircle
 10
-1.00634130681092
 20
-56.99166152593706
 40
69.94211350071961
100
AcDbArc
 50
96.05587557074148
 51
98.25308987317069
  0
ARC
  5
64
100
AcDbEntity
  8
1
  6
CENTER_DASH_DASH
 62
             7
100
AcDbCircle
 10
-1.00329198326196
 20
-57.00752931346239
 40
69.95825467792459
100
AcDbArc
 50
98.25369592168266
 51
100.45057223134489
  0
ARC
  5
63
100
AcDbEntity
  8
1
  6
CENTER_DASH_DASH
 62
             7
100
AcDbCircle
 10
-3.26063792746892
 20
-44.77568458615553
 40
57.5198611163365
100
AcDbArc
 50
100.44937676172681
 51
102.95079496842527
  0
ARC
  5
62
100
AcDbEntity
  8
1
  6
CENTER_DASH_DASH
 62
             7
100
AcDbCircle
 10
-3.25381837587481
 20
-44.80133233126012
 40
57.54638482226208
100
AcDbArc
 50
102.95168911576167
 51
105.45233861372259
  0
ARC
  5
61
100
AcDbEntity
  8
1
  6
CENTER_DASH_DASH
 62
             7
100
AcDbCircle
 10
-7.02193937493472
 20
-31.17534272266985
 40
43.40897608184505
100
AcDbArc
 50
105.45042608721731
 51
108.46541237773535
  0
ARC
  5
60
100
AcDbEntity
  8
1
  6
CENTER_DASH_DASH
 62
             7
100
AcDbCircle
 10
-7.00813567336425
 20
-31.21293268999017
 40
43.44900282275148
100
AcDbArc
 50
108.46697775298598
 51
111.48011197840523
  0
ARC
  5
5F
100
AcDbEntity
  8
1
  6
CENTER_DASH_DASH
 62
             7
100
AcDbCircle
 10
-11.98174634604709
 20
-18.57900857067867
 40
29.8713433583783
100
AcDbArc
 50
111.47646949768598
 51
115.34197714977124
  0
ARC
  5
5E
100
AcDbEntity
  8
1
  6
CENTER_DASH_DASH
 62
             7
100
AcDbCircle
 10
-11.95485608651468
 20
-18.63176362872531
 40
29.93053137693683
100
AcDbArc
 50
115.34527425474904
 51
119.20568368140839
  0
ARC
  5
5D
100
AcDbEntity
  8
1
  6
CENTER_DASH_DASH
 62
             7
100
AcDbCircle
 10
-17.42908611536761
 20
-8.84471300105411
 40
18.71654269113541
100
AcDbArc
 50
119.19724492421281
 51
124.4803775788539
  0
ARC
  5
5C
100
AcDbEntity
  8
1
  6
CENTER_DASH_DASH
 62
             7
100
AcDbCircle
 10
-17.37995263490618
 20
-8.91138349783802
 40
18.79931636594371
100
AcDbArc
 50
124.48878314755798
 51
129.75639384843089
  0
ARC
  5
5B
100
AcDbEntity
  8
1
  6
CENTER_DASH_DASH
 62
             7
100
AcDbCircle
 10
-22.46384072570745
 20
-2.80691485495686
 40
10.85510953032563
100
AcDbArc
 50
129.73325422086049
 51
137.38654896809379
  0
ARC
  5
5A
100
AcDbEntity
  8
1
  6
CENTER_DASH_DASH
 62
             7
100
AcDbCircle
 10
-22.37226534728136
 20
-2.88454189695268
 40
10.97506171993264
100
AcDbArc
 50
137.41198498836206
 51
145.00939245149306
  0
ARC
  5
59
100
AcDbEntity
  8
1
  6
CENTER_DASH_DASH
 62
             7
100
AcDbCircle
 10
-26.07505596376473
 20
-0.30045418137943
 40
6.45974339889529
100
AcDbArc
 50
144.9532251050089
 51
152.30162314464675
  0
ARC
  5
58
100
AcDbEntity
  8
1
  6
CENTER_DASH_DASH
 62
             7
100
AcDbCircle
 10
-26.16275765553433
 20
-0.25152302449532
 40
6.35934820818363
100
AcDbArc
 50
152.32467665149147
 51
159.75023916777192
  0
ARC
  5
57
100
AcDbEntity
  8
1
  6
CENTER_DASH_DASH
 62
             7
100
AcDbCircle
 10
-25.95423403114576
 20
-0.32573234832337
 40
6.58066888344318
100
AcDbArc
 50
159.77244220146935
 51
167.03050925763372
  0
ARC
  5
56
100
AcDbEntity
  8
1
  6
CENTER_DASH_DASH
 62
             7
100
AcDbCircle
 10
-27.33223635962921
 20
-0.01706605483975
 40
5.16855209356078
100
AcDbArc
 50
166.93654947393935
 51
175.55255767070039
  0
ARC
  5
55
100
AcDbEntity
  8
1
  6
CENTER_DASH_DASH
 62
             7
100
AcDbCircle
 10
-27.50953216764381
 20
0.0
 40
4.99046783235619
100
AcDbArc
 50
175.59005863049569
 51
-175.59005863049569
  0
ARC
  5
54
100
AcDbEntity
  8
1
  6
CENTER_DASH_DASH
 62
             7
100
AcDbCircle
 10
-27.33223635963163
 20
0.01706605483937
 40
5.16855209355833
100
AcDbArc
 50
-175.55255767070247
 51
-166.93654947393733
  0
ARC
  5
53
100
AcDbEntity
  8
1
  6
CENTER_DASH_DASH
 62
             7
100
AcDbCircle
 10
-25.95423403114735
 20
0.32573234832283
 40
6.58066888344151
100
AcDbArc
 50
-167.03050925763517
 51
-159.77244220146889
  0
ARC
  5
52
100
AcDbEntity
  8
1
  6
CENTER_DASH_DASH
 62
             7
100
AcDbCircle
 10
-26.16275765553063
 20
0.25152302449697
 40
6.35934820818768
100
AcDbArc
 50
-159.75023916776948
 51
-152.32467665149383
  0
ARC
  5
51
100
AcDbEntity
  8
1
  6
CENTER_DASH_DASH
 62
             7
100
AcDbCircle
 10
-26.07505596376397
 20
0.30045418137993
 40
6.4597433988962
100
AcDbArc
 50
-152.30162314464607
 51
-144.95322510500924
  0
ARC
  5
50
100
AcDbEntity
  8
1
  6
CENTER_DASH_DASH
 62
             7
100
AcDbCircle
 10
-22.37226534728012
 20
2.88454189695375
 40
10.97506171993427
100
AcDbArc
 50
-145.00939245149223
 51
-137.41198498836243
  0
ARC
  5
4F
100
AcDbEntity
  8
1
  6
CENTER_DASH_DASH
 62
             7
100
AcDbCircle
 10
-22.46384072570817
 20
2.80691485495609
 40
10.85510953032458
100
AcDbArc
 50
-137.38654896809427
 51
-129.73325422086023
  0
ARC
  5
4E
100
AcDbEntity
  8
1
  6
CENTER_DASH_DASH
 62
             7
100
AcDbCircle
 10
-17.37995263490588
 20
8.9113834978384
 40
18.79931636594419
100
AcDbArc
 50
-129.75639384843086
 51
-124.48878314755811
  0
ARC
  5
4D
100
AcDbEntity
  8
1
  6
CENTER_DASH_DASH
 62
             7
100
AcDbCircle
 10
-17.42908611536991
 20
8.84471300105047
 40
18.71654269113111
100
AcDbArc
 50
-124.48037757885444
 51
-119.19724492421216
  0
ARC
  5
4C
100
AcDbEntity
  8
1
  6
CENTER_DASH_DASH
 62
             7
100
AcDbCircle
 10
-11.95485608651177
 20
18.63176362873093
 40
29.93053137694315
100
AcDbArc
 50
-119.20568368140803
 51
-115.34527425474947
  0
ARC
  5
4B
100
AcDbEntity
  8
1
  6
CENTER_DASH_DASH
 62
             7
100
AcDbCircle
 10
-11.98174634604713
 20
18.57900857067855
 40
29.87134335837818
100
AcDbArc
 50
-115.34197714977128
 51
-111.476469497686
  0
ARC
  5
4A
100
AcDbEntity
  8
1
  6
CENTER_DASH_DASH
 62
             7
100
AcDbCircle
 10
-7.00813567336462
 20
31.21293268998907
 40
43.44900282275032
100
AcDbArc
 50
-111.4801119784053
 51
-108.46697775298597
  0
ARC
  5
49
100
AcDbEntity
  8
1
  6
CENTER_DASH_DASH
 62
             7
100
AcDbCircle
 10
-7.02193937493553
 20
31.17534272266696
 40
43.40897608184204
100
AcDbArc
 50
-108.46541237773555
 51
-105.45042608721731
  0
ARC
  5
48
100
AcDbEntity
  8
1
  6
CENTER_DASH_DASH
 62
             7
100
AcDbCircle
 10
-3.25381837587341
 20
44.80133233126546
 40
57.5463848222676
100
AcDbArc
 50
-105.45233861372253
 51
-102.95168911576184
  0
ARC
  5
47
100
AcDbEntity
  8
1
  6
CENTER_DASH_DASH
 62
             7
100
AcDbCircle
 10
-3.26063792746856
 20
44.77568458615763
 40
57.51986111633863
100
AcDbArc
 50
-102.95079496842516
 51
-100.4493767617268
  0
ARC
  5
46
100
AcDbEntity
  8
1
  6
CENTER_DASH_DASH
 62
             7
100
AcDbCircle
 10
-1.00329198325977
 20
57.00752931347491
 40
69.95825467793729
100
AcDbArc
 50
-100.45057223134481
 51
-98.25369592168296
  0
ARC
  5
45
100
AcDbEntity
  8
1
  6
CENTER_DASH_DASH
 62
             7
100
AcDbCircle
 10
-1.00634130680757
 20
56.9916615259644
 40
69.94211350074716
100
AcDbArc
 50
-98.25308987317021
 51
-96.05587557074183
  0
ARC
  5
44
100
AcDbEntity
  8
1
  6
CENTER_DASH_DASH
 62
             7
100
AcDbCircle
 10
-0.1047833198287
 20
65.47825229282769
 40
78.47645755003897
100
AcDbArc
 50
-96.05675612288383
 51
-94.02102891769307
  0
ARC
  5
43
100
AcDbEntity
  8
1
  6
CENTER_DASH_DASH
 62
             7
100
AcDbCircle
 10
-0.10597831474602
 20
65.47066898608505
 40
78.46880911713883
100
AcDbArc
 50
-94.02054679043704
 51
-91.98468730101085
  0
ARC
  5
42
100
AcDbEntity
  8
1
  6
CENTER_DASH_DASH
 62
             7
100
AcDbCircle
 10
0.00031799515589
 20
68.50699182228047
 40
81.5069918229008
100
AcDbArc
 50
-91.98544466087752
 51
-90.00022353640996
  0
ARC
  5
41
100
AcDbEntity
  8
1
  6
CENTER_DASH_DASH
 62
             7
100
AcDbCircle
 10
-0.00031799515591
 20
68.50699182228047
 40
81.50699182290079
100
AcDbArc
 50
-89.99977646359005
 51
-88.01455533912248
  0
ARC
  5
40
100
AcDbEntity
  8
1
  6
CENTER_DASH_DASH
 62
             7
100
AcDbCircle
 10
0.10597831474675
 20
65.47066898607289
 40
78.46880911712667
100
AcDbArc
 50
-88.01531269898939
 51
-85.97945320956289
  0
ARC
  5
3F
100
AcDbEntity
  8
1
  6
CENTER_DASH_DASH
 62
             7
100
AcDbCircle
 10
0.10478331982812
 20
65.47825229283359
 40
78.4764575500449
100
AcDbArc
 50
-85.97897108230683
 51
-83.94324387711623
  0
ARC
  5
3E
100
AcDbEntity
  8
1
  6
CENTER_DASH_DASH
 62
             7
100
AcDbCircle
 10
1.00634130680948
 20
56.99166152594941
 40
69.94211350073205
100
AcDbArc
 50
-83.94412442925844
 51
-81.7469101268296
  0
ARC
  5
3D
100
AcDbEntity
  8
1
  6
CENTER_DASH_DASH
 62
             7
100
AcDbCircle
 10
1.00329198326164
 20
57.00752931346332
 40
69.95825467792555
100
AcDbArc
 50
-81.7463040783172
 51
-79.54942776865501
  0
ARC
  5
3C
100
AcDbEntity
  8
1
  6
CENTER_DASH_DASH
 62
             7
100
AcDbCircle
 10
3.26063792746969
 20
44.77568458615227
 40
57.51986111633315
100
AcDbArc
 50
-79.55062323827339
 51
-77.04920503157476
  0
ARC
  5
3B
100
AcDbEntity
  8
1
  6
CENTER_DASH_DASH
 62
             7
100
AcDbCircle
 10
3.2538183758739
 20
44.80133233126355
 40
57.54638482226563
100
AcDbArc
 50
-77.04831088423823
 51
-74.54766138627744
  0
ARC
  5
3A
100
AcDbEntity
  8
1
  6
CENTER_DASH_DASH
 62
             7
100
AcDbCircle
 10
7.02193937493772
 20
31.17534272265953
 40
43.4089760818343
100
AcDbArc
 50
-74.54957391278288
 51
-71.53458762226408
  0
ARC
  5
39
100
AcDbEntity
  8
1
  6
CENTER_DASH_DASH
 62
             7
100
AcDbCircle
 10
7.00813567336584
 20
31.21293268998606
 40
43.44900282274708
100
AcDbArc
 50
-71.5330222470143
 51
-68.51988802159474
  0
ARC
  5
38
100
AcDbEntity
  8
1
  6
CENTER_DASH_DASH
 62
             7
100
AcDbCircle
 10
11.98174634604695
 20
18.57900857067886
 40
29.87134335837853
100
AcDbArc
 50
-68.52353050231389
 51
-64.65802285022873
  0
ARC
  5
37
100
AcDbEntity
  8
1
  6
CENTER_DASH_DASH
 62
             7
100
AcDbCircle
 10
11.9548560865158
 20
18.63176362872298
 40
29.93053137693424
100
AcDbArc
 50
-64.65472574525106
 51
-60.79431631859134
  0
ARC
  5
36
100
AcDbEntity
  8
1
  6
CENTER_DASH_DASH
 62
             7
100
AcDbCircle
 10
17.42908611536634
 20
8.84471300105624
 40
18.71654269113788
100
AcDbArc
 50
-60.80275507578703
 51
-55.51962242114654
  0
ARC
  5
35
100
AcDbEntity
  8
1
  6
CENTER_DASH_DASH
 62
             7
100
AcDbCircle
 10
17.37995263490479
 20
8.91138349783989
 40
18.79931636594603
100
AcDbArc
 50
-55.51121685244173
 51
-50.24360615156945
  0
ARC
  5
34
100
AcDbEntity
  8
1
  6
CENTER_DASH_DASH
 62
             7
100
AcDbCircle
 10
22.46384072570802
 20
2.80691485495628
 40
10.85510953032482
100
AcDbArc
 50
-50.26674577913975
 51
-42.61345103190592
  0
ARC
  5
33
100
AcDbEntity
  8
1
  6
CENTER_DASH_DASH
 62
             7
100
AcDbCircle
 10
22.37226534728047
 20
2.8845418969534
 40
10.97506171993378
100
AcDbArc
 50
-42.58801501163747
 51
-34.99060754850736
  0
ARC
  5
32
100
AcDbEntity
  8
1
  6
CENTER_DASH_DASH
 62
             7
100
AcDbCircle
 10
26.07505596376532
 20
0.3004541813791
 40
6.45974339889461
100
AcDbArc
 50
-35.04677489499167
 51
-27.6983768553532
  0
ARC
  5
31
100
AcDbEntity
  8
1
  6
CENTER_DASH_DASH
 62
             7
100
AcDbCircle
 10
26.16275765553167
 20
0.25152302449643
 40
6.3593482081865
100
AcDbArc
 50
-27.6753233485064
 51
-20.24976083222921
  0
ARC
  5
30
100
AcDbEntity
  8
1
  6
CENTER_DASH_DASH
 62
             7
100
AcDbCircle
 10
25.95423403114693
 20
0.32573234832306
 40
6.58066888344197
100
AcDbArc
 50
-20.22755779853167
 51
-12.96949074236608
  0
ARC
  5
2F
100
AcDbEntity
  8
1
  6
CENTER_DASH_DASH
 62
             7
100
AcDbCircle
 10
27.33223635963175
 20
0.01706605483934
 40
5.16855209355821
100
AcDbArc
 50
-13.06345052606283
 51
-4.44744232929755
  0
ARC
  5
2E
100
AcDbEntity
  8
1
  6
CENTER_DASH_DASH
 62
             7
100
AcDbCircle
 10
27.50953216764706
 20
0.00000000000003
 40
4.99046783235296
100
AcDbArc
 50
-4.40994136950784
 51
4.40994136950679
  0
ARC
  5
2D
100
AcDbEntity
  8
1
  6
CENTER_DASH_DASH
 62
             7
100
AcDbCircle
 10
27.33223635963286
 20
-0.01706605483913
 40
5.16855209355709
100
AcDbArc
 50
4.44744232929599
 51
13.06345052606321
  0
LINE
  5
2C
100
AcDbEntity
  8
1
  6
DOT_CENTER
 62
             2
100
AcDbLine
 10
-34.5
 20
0.0
 11
0.0
 21
0.0
  0
LINE
  5
2B
100
AcDbEntity
  8
1
  6
DOT_CENTER
 62
             2
100
AcDbLine
 10
0.0
 20
-15.0
 11
0.0
 21
0.0
  0
LINE
  5
2A
100
AcDbEntity
  8
1
  6
DOT_CENTER
 62
             2
100
AcDbLine
 10
0.0
 20
0.0
 11
34.50000000000001
 21
0.0
  0
LINE
  5
29
100
AcDbEntity
  8
1
  6
DOT_CENTER
 62
             2
100
AcDbLine
 10
0.0
 20
0.0
 11
0.0
 21
15.0
  0
POINT
  5
28
100
AcDbEntity
  8
1
 62
             7
100
AcDbPoint
 10
0.0
 20
0.0
  0
ENDSEC
  0
SECTION
  2
OBJECTS
  0
DICTIONARY
  5
19
100
AcDbDictionary
  3
ACAD_GROUP
350
1A
  3
ACAD_MLINESTYLE
350
1B
  0
DICTIONARY
  5
1A
102
{ACAD_REACTORS
330
19
102
}
100
AcDbDictionary
  0
DICTIONARY
  5
1B
102
{ACAD_REACTORS
330
19
102
}
100
AcDbDictionary
  3
STANDARD
350
1C
  0
MLINESTYLE
  5
1C
102
{ACAD_REACTORS
330
1B
102
}
100
AcDbMlineStyle
  2
STANDARD
 70
             0
  3

 62
             0
 51
90.0
 52
90.0
 71
             2
 49
0.5
 62
           256
  6
BYLAYER
 49
-0.5
 62
           256
  6
BYLAYER
  0
ENDSEC
  0
EOF
