  0
SECTION
  2
HEADER
  9
$ACADVER
  1
AC1009
  9
$LIMMIN
 10
-104.897226
 20
-122.000000
  9
$LIMMAX
 10
2724.457412
 20
1232.000000
  0
ENDSEC
  0
SECTION
  2
TABLES
  0
TABLE
  2
LTYPE
 70
     4
  0
LTYPE
  2
CONTINUOUS
 70
     0
  3
Solid line
 72
     65
 73
     0
 40
0.000000
  0
LTYPE
  2
HIDDEN
 70
     0
  3
 _ _ _ _ _ _ _ _ _ _ _
 72
     65
 73
     2
 40
0.375000
 49
0.250000
 49
-0.125000
  0
LTYPE
  2
DASHED
 70
     0
  3
 ___ ___ ___ ___ ___ ___ ___ 
 72
     65
 73
     2
 40
0.750000
 49
0.500000
 49
-0.250000
  0
LTYPE
  2
CENTER
 70
     0
  3
___ _ ___ _ ___ _ ___
 72
     65
 73
     4
 40
2.000000
 49
1.250000
 49
-0.250000
 49
0.250000
 49
-0.250000
  0
LTYPE
  2
BORDER
 70
     0
  3
___ ___ . ___ ___ . ___ ___
 72
     65
 73
     6
 40
1.750000
 49
0.500000
 49
-0.250000
 49
0.500000
 49
-0.250000
 49
0.000000
 49
-0.250000
  0
LTYPE
  2
DOT
 70
     0
  3
.................
 72
     65
 73
     2
 40
0.250000
 49
0.000000
 49
-0.250000
  0
LTYPE
  2
DASHDOT
 70
     0
  3
__ . __ . __ . __
 72
     65
 73
     4
 40
1.000000
 49
0.500000
 49
-0.250000
 49
0.000000
 49
-0.250000
  0
LTYPE
  2
DIVIDE
 70
     0
  3
___ .. ___ .. ___ .. ___
 72
     65
 73
     6
 40
1.250000
 49
0.500000
 49
-0.250000
 49
0.000000
 49
-0.250000
 49
0.000000
 49
-0.250000
  0
ENDTAB
  0
TABLE
  2
LAYER
 70
     8
  0
LAYER
  2
BLACK
 70
     0
 62
     1
  6
CONTINUOUS
  0
LAYER
  2
WHITE
 70
     0
 62
     7
  6
CONTINUOUS
  0
LAYER
  2
RED
 70
     0
 62
     1
  6
CONTINUOUS
  0
LAYER
  2
YELLOW
 70
     0
 62
     2
  6
CONTINUOUS
  0
LAYER
  2
GREEN
 70
     0
 62
     3
  6
CONTINUOUS
  0
LAYER
  2
CYAN
 70
     0
 62
     4
  6
CONTINUOUS
  0
LAYER
  2
BLUE
 70
     0
 62
     5
  6
CONTINUOUS
  0
LAYER
  2
MAGENTA
 70
     0
 62
     6
  6
CONTINUOUS
  0
ENDTAB
  0
TABLE
  2
APPID
 70
     1
  0
APPID
  2
TC_BEND_DATA
 70
     0
  0
ENDTAB
  0
ENDSEC
  0
SECTION
  2
BLOCKS
  0
ENDSEC
  0
SECTION
  2
ENTITIES
  0
CIRCLE
  8
WHITE
 10
135.000000
 20
1108.000000
 30
0.000000
 40
60.000000
  6
CONTINUOUS
  0
CIRCLE
  8
WHITE
 10
135.000000
 20
1108.000000
 30
0.000000
 40
50.000000
  6
CONTINUOUS
  0
CIRCLE
  8
WHITE
 10
135.000000
 20
1108.000000
 30
0.000000
 40
40.000000
  6
CONTINUOUS
  0
CIRCLE
  8
YELLOW
 10
135.000000
 20
1108.000000
 30
0.000000
 40
12.000000
  6
CONTINUOUS
  0
CIRCLE
  8
YELLOW
 10
135.000000
 20
1155.000000
 30
0.000000
 40
6.000000
  6
CONTINUOUS
  0
CIRCLE
  8
WHITE
 10
602.000000
 20
153.000000
 30
0.000000
 40
60.000000
  6
CONTINUOUS
  0
CIRCLE
  8
WHITE
 10
602.000000
 20
153.000000
 30
0.000000
 40
50.000000
  6
CONTINUOUS
  0
CIRCLE
  8
YELLOW
 10
602.000000
 20
153.000000
 30
0.000000
 40
12.000000
  6
CONTINUOUS
  0
CIRCLE
  8
YELLOW
 10
602.000000
 20
106.000000
 30
0.000000
 40
6.000000
  6
CONTINUOUS
  0
CIRCLE
  8
YELLOW
 10
602.000000
 20
200.000000
 30
0.000000
 40
6.000000
  6
CONTINUOUS
  0
CIRCLE
  8
WHITE
 10
1142.000000
 20
153.000000
 30
0.000000
 40
60.000000
  6
CONTINUOUS
  0
CIRCLE
  8
WHITE
 10
1142.000000
 20
153.000000
 30
0.000000
 40
50.000000
  6
CONTINUOUS
  0
CIRCLE
  8
YELLOW
 10
1142.000000
 20
153.000000
 30
0.000000
 40
12.000000
  6
CONTINUOUS
  0
CIRCLE
  8
YELLOW
 10
1142.000000
 20
106.000000
 30
0.000000
 40
6.000000
  6
CONTINUOUS
  0
CIRCLE
  8
YELLOW
 10
1142.000000
 20
200.000000
 30
0.000000
 40
6.000000
  6
CONTINUOUS
  0
CIRCLE
  8
WHITE
 10
1920.000000
 20
200.000000
 30
0.000000
 40
60.000000
  6
CONTINUOUS
  0
CIRCLE
  8
WHITE
 10
1920.000000
 20
200.000000
 30
0.000000
 40
50.000000
  6
CONTINUOUS
  0
CIRCLE
  8
YELLOW
 10
1920.000000
 20
200.000000
 30
0.000000
 40
12.000000
  6
CONTINUOUS
  0
CIRCLE
  8
YELLOW
 10
1920.000000
 20
153.000000
 30
0.000000
 40
6.000000
  6
CONTINUOUS
  0
CIRCLE
  8
YELLOW
 10
1920.000000
 20
247.000000
 30
0.000000
 40
6.000000
  6
CONTINUOUS
  0
CIRCLE
  8
WHITE
 10
250.000000
 20
813.500000
 30
0.000000
 40
55.000000
  6
CONTINUOUS
  0
CIRCLE
  8
YELLOW
 10
250.000000
 20
813.500000
 30
0.000000
 40
12.000000
  6
CONTINUOUS
  0
CIRCLE
  8
YELLOW
 10
250.000000
 20
764.500000
 30
0.000000
 40
6.000000
  6
CONTINUOUS
  0
CIRCLE
  8
YELLOW
 10
250.000000
 20
862.500000
 30
0.000000
 40
6.000000
  6
CONTINUOUS
  0
CIRCLE
  8
WHITE
 10
300.000000
 20
583.500000
 30
0.000000
 40
55.000000
  6
CONTINUOUS
  0
CIRCLE
  8
YELLOW
 10
300.000000
 20
583.500000
 30
0.000000
 40
12.000000
  6
CONTINUOUS
  0
CIRCLE
  8
YELLOW
 10
300.000000
 20
632.500000
 30
0.000000
 40
6.000000
  6
CONTINUOUS
  0
CIRCLE
  8
WHITE
 10
612.000000
 20
366.000000
 30
0.000000
 40
55.000000
  6
CONTINUOUS
  0
LINE
  8
YELLOW
 10
592.000000
 20
366.000000
 30
0.000000
 11
612.000000
 21
366.000000
 31
0.000000
  6
CONTINUOUS
  0
ARC
  8
YELLOW
 10
612.000000
 20
371.000000
 30
0.000000
 40
5.000000
 50
-90.000000
 51
0.000000
  6
CONTINUOUS
  0
LINE
  8
YELLOW
 10
617.000000
 20
371.000000
 30
0.000000
 11
617.000000
 21
401.000000
 31
0.000000
  6
CONTINUOUS
  0
ARC
  8
YELLOW
 10
612.000000
 20
401.000000
 30
0.000000
 40
5.000000
 50
0.000000
 51
90.000000
  6
CONTINUOUS
  0
LINE
  8
YELLOW
 10
612.000000
 20
406.000000
 30
0.000000
 11
592.000000
 21
406.000000
 31
0.000000
  6
CONTINUOUS
  0
ARC
  8
YELLOW
 10
592.000000
 20
401.000000
 30
0.000000
 40
5.000000
 50
90.000000
 51
180.000000
  6
CONTINUOUS
  0
LINE
  8
YELLOW
 10
587.000000
 20
401.000000
 30
0.000000
 11
587.000000
 21
371.000000
 31
0.000000
  6
CONTINUOUS
  0
ARC
  8
YELLOW
 10
592.000000
 20
371.000000
 30
0.000000
 40
5.000000
 50
180.000000
 51
270.000000
  6
CONTINUOUS
  0
CIRCLE
  8
YELLOW
 10
602.000000
 20
341.000000
 30
0.000000
 40
12.000000
  6
CONTINUOUS
  0
LINE
  8
YELLOW
 10
560.000000
 20
376.636454
 30
0.000000
 11
584.000000
 21
376.636454
 31
0.000000
  6
CONTINUOUS
  0
CIRCLE
  8
WHITE
 10
625.000000
 20
1155.000000
 30
0.000000
 40
55.000000
  6
CONTINUOUS
  0
CIRCLE
  8
YELLOW
 10
625.000000
 20
1155.000000
 30
0.000000
 40
12.000000
  6
CONTINUOUS
  0
CIRCLE
  8
YELLOW
 10
625.000000
 20
1108.000000
 30
0.000000
 40
6.000000
  6
CONTINUOUS
  0
CIRCLE
  8
YELLOW
 10
625.000000
 20
1202.000000
 30
0.000000
 40
6.000000
  6
CONTINUOUS
  0
CIRCLE
  8
WHITE
 10
930.039954
 20
588.000000
 30
0.000000
 40
55.000000
  6
CONTINUOUS
  0
CIRCLE
  8
YELLOW
 10
930.039954
 20
588.000000
 30
0.000000
 40
12.000000
  6
CONTINUOUS
  0
CIRCLE
  8
WHITE
 10
930.039954
 20
853.000000
 30
0.000000
 40
55.000000
  6
CONTINUOUS
  0
CIRCLE
  8
YELLOW
 10
930.039954
 20
853.000000
 30
0.000000
 40
12.000000
  6
CONTINUOUS
  0
CIRCLE
  8
WHITE
 10
1142.000000
 20
341.000000
 30
0.000000
 40
55.000000
  6
CONTINUOUS
  0
CIRCLE
  8
YELLOW
 10
1142.000000
 20
341.000000
 30
0.000000
 40
12.000000
  6
CONTINUOUS
  0
CIRCLE
  8
WHITE
 10
1150.000000
 20
1155.000000
 30
0.000000
 40
55.000000
  6
CONTINUOUS
  0
CIRCLE
  8
YELLOW
 10
1150.000000
 20
1155.000000
 30
0.000000
 40
12.000000
  6
CONTINUOUS
  0
CIRCLE
  8
YELLOW
 10
1150.000000
 20
1108.000000
 30
0.000000
 40
6.000000
  6
CONTINUOUS
  0
CIRCLE
  8
YELLOW
 10
1150.000000
 20
1202.000000
 30
0.000000
 40
6.000000
  6
CONTINUOUS
  0
CIRCLE
  8
WHITE
 10
1420.000000
 20
200.000000
 30
0.000000
 40
55.000000
  6
CONTINUOUS
  0
CIRCLE
  8
YELLOW
 10
1420.000000
 20
200.000000
 30
0.000000
 40
12.000000
  6
CONTINUOUS
  0
CIRCLE
  8
YELLOW
 10
1420.000000
 20
153.838410
 30
0.000000
 40
6.000000
  6
CONTINUOUS
  0
CIRCLE
  8
YELLOW
 10
1420.000000
 20
247.000000
 30
0.000000
 40
6.000000
  6
CONTINUOUS
  0
CIRCLE
  8
WHITE
 10
1760.000000
 20
1155.000000
 30
0.000000
 40
55.000000
  6
CONTINUOUS
  0
CIRCLE
  8
YELLOW
 10
1760.000000
 20
1155.000000
 30
0.000000
 40
12.000000
  6
CONTINUOUS
  0
CIRCLE
  8
YELLOW
 10
1760.000000
 20
1108.000000
 30
0.000000
 40
6.000000
  6
CONTINUOUS
  0
CIRCLE
  8
YELLOW
 10
1760.000000
 20
1202.000000
 30
0.000000
 40
6.000000
  6
CONTINUOUS
  0
CIRCLE
  8
WHITE
 10
1870.000000
 20
853.000000
 30
0.000000
 40
55.000000
  6
CONTINUOUS
  0
CIRCLE
  8
YELLOW
 10
1870.000000
 20
853.000000
 30
0.000000
 40
12.000000
  6
CONTINUOUS
  0
CIRCLE
  8
WHITE
 10
2395.000000
 20
153.000000
 30
0.000000
 40
55.000000
  6
CONTINUOUS
  0
CIRCLE
  8
YELLOW
 10
2395.000000
 20
153.000000
 30
0.000000
 40
12.000000
  6
CONTINUOUS
  0
CIRCLE
  8
YELLOW
 10
2395.000000
 20
106.000000
 30
0.000000
 40
6.000000
  6
CONTINUOUS
  0
CIRCLE
  8
YELLOW
 10
2395.000000
 20
200.000000
 30
0.000000
 40
6.000000
  6
CONTINUOUS
  0
CIRCLE
  8
WHITE
 10
2395.000000
 20
643.000000
 30
0.000000
 40
55.000000
  6
CONTINUOUS
  0
CIRCLE
  8
YELLOW
 10
2395.000000
 20
643.000000
 30
0.000000
 40
12.000000
  6
CONTINUOUS
  0
CIRCLE
  8
WHITE
 10
2395.000000
 20
1155.000000
 30
0.000000
 40
55.000000
  6
CONTINUOUS
  0
CIRCLE
  8
YELLOW
 10
2395.000000
 20
1155.000000
 30
0.000000
 40
12.000000
  6
CONTINUOUS
  0
CIRCLE
  8
YELLOW
 10
2395.000000
 20
1108.000000
 30
0.000000
 40
6.000000
  6
CONTINUOUS
  0
CIRCLE
  8
YELLOW
 10
2395.000000
 20
1202.000000
 30
0.000000
 40
6.000000
  6
CONTINUOUS
  0
CIRCLE
  8
WHITE
 10
35.000000
 20
764.500000
 30
0.000000
 40
22.500000
  6
CONTINUOUS
  0
CIRCLE
  8
YELLOW
 10
35.000000
 20
764.500000
 30
0.000000
 40
12.000000
  6
CONTINUOUS
  0
CIRCLE
  8
WHITE
 10
35.000000
 20
862.500000
 30
0.000000
 40
22.500000
  6
CONTINUOUS
  0
CIRCLE
  8
YELLOW
 10
35.000000
 20
862.500000
 30
0.000000
 40
12.000000
  6
CONTINUOUS
  0
CIRCLE
  8
WHITE
 10
35.000000
 20
1108.000000
 30
0.000000
 40
22.500000
  6
CONTINUOUS
  0
CIRCLE
  8
YELLOW
 10
35.000000
 20
1108.000000
 30
0.000000
 40
12.000000
  6
CONTINUOUS
  0
CIRCLE
  8
WHITE
 10
35.000000
 20
1202.000000
 30
0.000000
 40
22.500000
  6
CONTINUOUS
  0
CIRCLE
  8
YELLOW
 10
35.000000
 20
1202.000000
 30
0.000000
 40
12.000000
  6
CONTINUOUS
  0
CIRCLE
  8
WHITE
 10
150.000000
 20
608.000000
 30
0.000000
 40
22.500000
  6
CONTINUOUS
  0
CIRCLE
  8
YELLOW
 10
150.000000
 20
608.000000
 30
0.000000
 40
12.000000
  6
CONTINUOUS
  0
CIRCLE
  8
WHITE
 10
150.000000
 20
706.000000
 30
0.000000
 40
22.500000
  6
CONTINUOUS
  0
CIRCLE
  8
YELLOW
 10
150.000000
 20
706.000000
 30
0.000000
 40
12.000000
  6
CONTINUOUS
  0
CIRCLE
  8
WHITE
 10
150.000000
 20
911.500000
 30
0.000000
 40
22.500000
  6
CONTINUOUS
  0
CIRCLE
  8
YELLOW
 10
150.000000
 20
911.500000
 30
0.000000
 40
12.000000
  6
CONTINUOUS
  0
CIRCLE
  8
WHITE
 10
350.000000
 20
706.000000
 30
0.000000
 40
22.500000
  6
CONTINUOUS
  0
CIRCLE
  8
YELLOW
 10
350.000000
 20
706.000000
 30
0.000000
 40
12.000000
  6
CONTINUOUS
  0
CIRCLE
  8
WHITE
 10
602.000000
 20
59.000000
 30
0.000000
 40
22.500000
  6
CONTINUOUS
  0
CIRCLE
  8
YELLOW
 10
602.000000
 20
59.000000
 30
0.000000
 40
12.000000
  6
CONTINUOUS
  0
CIRCLE
  8
WHITE
 10
675.000000
 20
588.000000
 30
0.000000
 40
22.500000
  6
CONTINUOUS
  0
CIRCLE
  8
YELLOW
 10
675.000000
 20
588.000000
 30
0.000000
 40
12.000000
  6
CONTINUOUS
  0
CIRCLE
  8
WHITE
 10
675.000000
 20
798.000000
 30
0.000000
 40
22.500000
  6
CONTINUOUS
  0
CIRCLE
  8
YELLOW
 10
675.000000
 20
798.000000
 30
0.000000
 40
12.000000
  6
CONTINUOUS
  0
CIRCLE
  8
WHITE
 10
1134.985787
 20
858.000000
 30
0.000000
 40
22.500000
  6
CONTINUOUS
  0
CIRCLE
  8
YELLOW
 10
1134.985787
 20
858.000000
 30
0.000000
 40
12.000000
  6
CONTINUOUS
  0
CIRCLE
  8
WHITE
 10
1142.000000
 20
59.000000
 30
0.000000
 40
22.500000
  6
CONTINUOUS
  0
CIRCLE
  8
YELLOW
 10
1142.000000
 20
59.000000
 30
0.000000
 40
12.000000
  6
CONTINUOUS
  0
CIRCLE
  8
WHITE
 10
1420.000000
 20
59.000000
 30
0.000000
 40
22.500000
  6
CONTINUOUS
  0
CIRCLE
  8
YELLOW
 10
1420.000000
 20
59.000000
 30
0.000000
 40
12.000000
  6
CONTINUOUS
  0
CIRCLE
  8
WHITE
 10
1479.967756
 20
858.000000
 30
0.000000
 40
22.500000
  6
CONTINUOUS
  0
CIRCLE
  8
YELLOW
 10
1479.967756
 20
858.000000
 30
0.000000
 40
12.000000
  6
CONTINUOUS
  0
CIRCLE
  8
WHITE
 10
1870.000000
 20
588.000000
 30
0.000000
 40
22.500000
  6
CONTINUOUS
  0
CIRCLE
  8
YELLOW
 10
1870.000000
 20
588.000000
 30
0.000000
 40
12.000000
  6
CONTINUOUS
  0
CIRCLE
  8
WHITE
 10
1920.000000
 20
59.000000
 30
0.000000
 40
22.500000
  6
CONTINUOUS
  0
CIRCLE
  8
YELLOW
 10
1920.000000
 20
59.000000
 30
0.000000
 40
12.000000
  6
CONTINUOUS
  0
CIRCLE
  8
WHITE
 10
2395.000000
 20
59.000000
 30
0.000000
 40
22.500000
  6
CONTINUOUS
  0
CIRCLE
  8
YELLOW
 10
2395.000000
 20
59.000000
 30
0.000000
 40
12.000000
  6
CONTINUOUS
  0
ARC
  8
WHITE
 10
636.941442
 20
298.068077
 30
0.000000
 40
25.195202
 50
-12.925519
 51
0.583773
  6
CONTINUOUS
  0
ARC
  8
WHITE
 10
645.419751
 20
296.201653
 30
0.000000
 40
16.514411
 50
-26.615135
 51
-13.193820
  6
CONTINUOUS
  0
ARC
  8
WHITE
 10
649.098241
 20
294.349291
 30
0.000000
 40
12.395861
 50
-38.888938
 51
-26.577544
  6
CONTINUOUS
  0
ARC
  8
WHITE
 10
652.512341
 20
291.531598
 30
0.000000
 40
7.969620
 50
-63.726034
 51
-38.531080
  6
CONTINUOUS
  0
ARC
  8
WHITE
 10
652.789717
 20
291.279868
 30
0.000000
 40
7.622348
 50
-90.715924
 51
-64.758056
  6
CONTINUOUS
  0
ARC
  8
WHITE
 10
652.598570
 20
291.183798
 30
0.000000
 40
7.526295
 50
-121.211013
 51
-89.269869
  6
CONTINUOUS
  0
ARC
  8
WHITE
 10
653.262571
 20
292.102240
 30
0.000000
 40
8.656375
 50
-143.518966
 51
-121.819753
  6
CONTINUOUS
  0
ARC
  8
WHITE
 10
655.135881
 20
293.488522
 30
0.000000
 40
10.986840
 50
-157.461350
 51
-143.514503
  6
CONTINUOUS
  0
ARC
  8
WHITE
 10
659.006653
 20
295.128883
 30
0.000000
 40
15.190760
 50
-165.711833
 51
-157.342992
  6
CONTINUOUS
  0
ARC
  8
WHITE
 10
671.103107
 20
298.314485
 30
0.000000
 40
27.699421
 50
179.667316
 51
194.498468
  6
CONTINUOUS
  0
ARC
  8
WHITE
 10
668.728204
 20
298.742807
 30
0.000000
 40
25.325463
 50
166.293897
 51
180.605172
  6
CONTINUOUS
  0
ARC
  8
WHITE
 10
660.589601
 20
300.640029
 30
0.000000
 40
16.969299
 50
152.259945
 51
166.006301
  6
CONTINUOUS
  0
ARC
  8
WHITE
 10
654.680075
 20
303.726233
 30
0.000000
 40
10.302474
 50
137.829369
 51
152.153436
  6
CONTINUOUS
  0
ARC
  8
WHITE
 10
653.424803
 20
304.636895
 30
0.000000
 40
8.762373
 50
114.874062
 51
136.732222
  6
CONTINUOUS
  0
ARC
  8
WHITE
 10
652.585641
 20
306.594015
 30
0.000000
 40
6.634122
 50
90.360170
 51
115.408645
  6
CONTINUOUS
  0
ARC
  8
WHITE
 10
652.727354
 20
304.794477
 30
0.000000
 40
8.435524
 50
61.905652
 51
91.245897
  6
CONTINUOUS
  0
ARC
  8
WHITE
 10
652.889742
 20
305.451103
 30
0.000000
 40
7.781563
 50
37.518427
 51
60.683537
  6
CONTINUOUS
  0
ARC
  8
WHITE
 10
649.961720
 20
303.215587
 30
0.000000
 40
11.465417
 50
24.373123
 51
37.467968
  6
CONTINUOUS
  0
ARC
  8
WHITE
 10
644.350223
 20
300.741283
 30
0.000000
 40
17.598000
 50
9.579520
 51
24.171426
  6
CONTINUOUS
  0
ARC
  8
WHITE
 10
631.817746
 20
298.561632
 30
0.000000
 40
30.318515
 50
-0.447605
 51
9.699804
  6
CONTINUOUS
  0
ARC
  8
WHITE
 10
651.440427
 20
292.531434
 30
0.000000
 40
5.450672
 50
-52.743543
 51
-32.449158
  6
CONTINUOUS
  0
ARC
  8
WHITE
 10
649.146916
 20
294.183185
 30
0.000000
 40
8.273952
 50
-33.579879
 51
-21.289433
  6
CONTINUOUS
  0
ARC
  8
WHITE
 10
643.363582
 20
296.222760
 30
0.000000
 40
14.404529
 50
-20.496193
 51
-7.208103
  6
CONTINUOUS
  0
ARC
  8
WHITE
 10
626.929147
 20
298.474155
 30
0.000000
 40
30.992047
 50
-7.525189
 51
0.439489
  6
CONTINUOUS
  0
ARC
  8
WHITE
 10
630.482471
 20
299.128199
 30
0.000000
 40
27.440969
 50
-0.869299
 51
10.002967
  6
CONTINUOUS
  0
ARC
  8
WHITE
 10
647.956021
 20
302.226449
 30
0.000000
 40
9.694889
 50
9.908343
 51
26.231682
  6
CONTINUOUS
  0
ARC
  8
WHITE
 10
650.048135
 20
302.824682
 30
0.000000
 40
7.563776
 50
29.172805
 51
50.969255
  6
CONTINUOUS
  0
ARC
  8
WHITE
 10
652.831049
 20
306.349380
 30
0.000000
 40
3.073802
 50
49.890977
 51
88.135926
  6
CONTINUOUS
  0
ARC
  8
WHITE
 10
652.906091
 20
305.722041
 30
0.000000
 40
3.699598
 50
89.613680
 51
124.864711
  6
CONTINUOUS
  0
ARC
  8
WHITE
 10
653.902042
 20
304.384120
 30
0.000000
 40
5.366950
 50
125.423828
 51
145.963412
  6
CONTINUOUS
  0
ARC
  8
WHITE
 10
655.773680
 20
302.943375
 30
0.000000
 40
7.725742
 50
144.878207
 51
157.808807
  6
CONTINUOUS
  0
ARC
  8
WHITE
 10
661.258092
 20
300.928930
 30
0.000000
 40
13.566336
 50
158.679792
 51
172.593759
  6
CONTINUOUS
  0
ARC
  8
WHITE
 10
677.364691
 20
298.652963
 30
0.000000
 40
29.832488
 50
172.246554
 51
180.465095
  6
CONTINUOUS
  0
ARC
  8
WHITE
 10
675.604599
 20
298.125923
 30
0.000000
 40
28.072859
 50
179.418560
 51
189.068684
  6
CONTINUOUS
  0
ARC
  8
WHITE
 10
661.320307
 20
295.868237
 30
0.000000
 40
13.611284
 50
-170.838700
 51
-159.113814
  6
CONTINUOUS
  0
ARC
  8
WHITE
 10
656.442910
 20
294.074011
 30
0.000000
 40
8.414947
 50
-158.688082
 51
-146.932272
  6
CONTINUOUS
  0
ARC
  8
WHITE
 10
653.384303
 20
291.979971
 30
0.000000
 40
4.709968
 50
-147.978412
 51
-122.357052
  6
CONTINUOUS
  0
ARC
  8
WHITE
 10
652.640366
 20
290.950402
 30
0.000000
 40
3.442980
 50
-121.068788
 51
-89.457401
  6
CONTINUOUS
  0
ARC
  8
WHITE
 10
652.684316
 20
290.933124
 30
0.000000
 40
3.425566
 50
-90.189765
 51
-53.119247
  6
CONTINUOUS
  0
ARC
  8
WHITE
 10
721.008111
 20
1200.473046
 30
0.000000
 40
16.969299
 50
152.259945
 51
166.006301
  6
CONTINUOUS
  0
ARC
  8
WHITE
 10
715.098585
 20
1203.559250
 30
0.000000
 40
10.302474
 50
137.829369
 51
152.153436
  6
CONTINUOUS
  0
ARC
  8
WHITE
 10
713.843314
 20
1204.469912
 30
0.000000
 40
8.762373
 50
114.874062
 51
136.732222
  6
CONTINUOUS
  0
ARC
  8
WHITE
 10
713.004152
 20
1206.427032
 30
0.000000
 40
6.634122
 50
90.360170
 51
115.408645
  6
CONTINUOUS
  0
ARC
  8
WHITE
 10
713.145865
 20
1204.627493
 30
0.000000
 40
8.435524
 50
61.905652
 51
91.245897
  6
CONTINUOUS
  0
ARC
  8
WHITE
 10
713.308253
 20
1205.284120
 30
0.000000
 40
7.781563
 50
37.518427
 51
60.683537
  6
CONTINUOUS
  0
ARC
  8
WHITE
 10
710.380231
 20
1203.048603
 30
0.000000
 40
11.465417
 50
24.373123
 51
37.467968
  6
CONTINUOUS
  0
ARC
  8
WHITE
 10
704.768734
 20
1200.574300
 30
0.000000
 40
17.598000
 50
9.579520
 51
24.171426
  6
CONTINUOUS
  0
ARC
  8
WHITE
 10
692.236257
 20
1198.394648
 30
0.000000
 40
30.318515
 50
-0.447605
 51
9.699804
  6
CONTINUOUS
  0
ARC
  8
WHITE
 10
697.359953
 20
1197.901094
 30
0.000000
 40
25.195202
 50
-12.925519
 51
0.583773
  6
CONTINUOUS
  0
ARC
  8
WHITE
 10
705.838261
 20
1196.034670
 30
0.000000
 40
16.514411
 50
-26.615135
 51
-13.193820
  6
CONTINUOUS
  0
ARC
  8
WHITE
 10
709.516751
 20
1194.182307
 30
0.000000
 40
12.395861
 50
-38.888938
 51
-26.577544
  6
CONTINUOUS
  0
ARC
  8
WHITE
 10
712.930851
 20
1191.364614
 30
0.000000
 40
7.969620
 50
-63.726034
 51
-38.531080
  6
CONTINUOUS
  0
ARC
  8
WHITE
 10
713.208227
 20
1191.112884
 30
0.000000
 40
7.622348
 50
-90.715924
 51
-64.758056
  6
CONTINUOUS
  0
ARC
  8
WHITE
 10
713.017080
 20
1191.016814
 30
0.000000
 40
7.526295
 50
-121.211013
 51
-89.269869
  6
CONTINUOUS
  0
ARC
  8
WHITE
 10
713.681082
 20
1191.935257
 30
0.000000
 40
8.656375
 50
-143.518966
 51
-121.819753
  6
CONTINUOUS
  0
ARC
  8
WHITE
 10
715.554392
 20
1193.321539
 30
0.000000
 40
10.986840
 50
-157.461350
 51
-143.514503
  6
CONTINUOUS
  0
ARC
  8
WHITE
 10
719.425163
 20
1194.961900
 30
0.000000
 40
15.190760
 50
-165.711833
 51
-157.342992
  6
CONTINUOUS
  0
ARC
  8
WHITE
 10
731.521618
 20
1198.147501
 30
0.000000
 40
27.699421
 50
179.667316
 51
194.498468
  6
CONTINUOUS
  0
ARC
  8
WHITE
 10
729.146714
 20
1198.575824
 30
0.000000
 40
25.325463
 50
166.293897
 51
180.605172
  6
CONTINUOUS
  0
ARC
  8
WHITE
 10
713.802814
 20
1191.812988
 30
0.000000
 40
4.709968
 50
-147.978412
 51
-122.357052
  6
CONTINUOUS
  0
ARC
  8
WHITE
 10
713.058876
 20
1190.783419
 30
0.000000
 40
3.442980
 50
-121.068788
 51
-89.457401
  6
CONTINUOUS
  0
ARC
  8
WHITE
 10
713.102827
 20
1190.766140
 30
0.000000
 40
3.425566
 50
-90.189765
 51
-53.119247
  6
CONTINUOUS
  0
ARC
  8
WHITE
 10
711.858937
 20
1192.364451
 30
0.000000
 40
5.450672
 50
-52.743543
 51
-32.449158
  6
CONTINUOUS
  0
ARC
  8
WHITE
 10
709.565427
 20
1194.016202
 30
0.000000
 40
8.273952
 50
-33.579879
 51
-21.289433
  6
CONTINUOUS
  0
ARC
  8
WHITE
 10
703.782092
 20
1196.055776
 30
0.000000
 40
14.404529
 50
-20.496193
 51
-7.208103
  6
CONTINUOUS
  0
ARC
  8
WHITE
 10
687.347658
 20
1198.307171
 30
0.000000
 40
30.992047
 50
-7.525189
 51
0.439489
  6
CONTINUOUS
  0
ARC
  8
WHITE
 10
690.900982
 20
1198.961216
 30
0.000000
 40
27.440969
 50
-0.869299
 51
10.002967
  6
CONTINUOUS
  0
ARC
  8
WHITE
 10
708.374531
 20
1202.059465
 30
0.000000
 40
9.694889
 50
9.908343
 51
26.231682
  6
CONTINUOUS
  0
ARC
  8
WHITE
 10
710.466646
 20
1202.657698
 30
0.000000
 40
7.563776
 50
29.172805
 51
50.969255
  6
CONTINUOUS
  0
ARC
  8
WHITE
 10
713.249560
 20
1206.182396
 30
0.000000
 40
3.073802
 50
49.890977
 51
88.135926
  6
CONTINUOUS
  0
ARC
  8
WHITE
 10
713.324601
 20
1205.555058
 30
0.000000
 40
3.699598
 50
89.613680
 51
124.864711
  6
CONTINUOUS
  0
ARC
  8
WHITE
 10
714.320553
 20
1204.217136
 30
0.000000
 40
5.366950
 50
125.423828
 51
145.963412
  6
CONTINUOUS
  0
ARC
  8
WHITE
 10
716.192190
 20
1202.776391
 30
0.000000
 40
7.725742
 50
144.878207
 51
157.808807
  6
CONTINUOUS
  0
ARC
  8
WHITE
 10
721.676602
 20
1200.761946
 30
0.000000
 40
13.566336
 50
158.679792
 51
172.593759
  6
CONTINUOUS
  0
ARC
  8
WHITE
 10
737.783201
 20
1198.485979
 30
0.000000
 40
29.832488
 50
172.246554
 51
180.465095
  6
CONTINUOUS
  0
ARC
  8
WHITE
 10
736.023109
 20
1197.958939
 30
0.000000
 40
28.072859
 50
179.418560
 51
189.068684
  6
CONTINUOUS
  0
ARC
  8
WHITE
 10
721.738817
 20
1195.701254
 30
0.000000
 40
13.611284
 50
-170.838700
 51
-159.113814
  6
CONTINUOUS
  0
ARC
  8
WHITE
 10
716.861421
 20
1193.907028
 30
0.000000
 40
8.414947
 50
-158.688082
 51
-146.932272
  6
CONTINUOUS
  0
ARC
  8
WHITE
 10
1223.660129
 20
853.574805
 30
0.000000
 40
7.622348
 50
-90.715924
 51
-64.758056
  6
CONTINUOUS
  0
ARC
  8
WHITE
 10
1223.468982
 20
853.478735
 30
0.000000
 40
7.526295
 50
-121.211013
 51
-89.269869
  6
CONTINUOUS
  0
ARC
  8
WHITE
 10
1224.132983
 20
854.397178
 30
0.000000
 40
8.656375
 50
-143.518966
 51
-121.819753
  6
CONTINUOUS
  0
ARC
  8
WHITE
 10
1226.006293
 20
855.783460
 30
0.000000
 40
10.986840
 50
-157.461350
 51
-143.514503
  6
CONTINUOUS
  0
ARC
  8
WHITE
 10
1229.877065
 20
857.423821
 30
0.000000
 40
15.190760
 50
-165.711833
 51
-157.342992
  6
CONTINUOUS
  0
ARC
  8
WHITE
 10
1241.973519
 20
860.609422
 30
0.000000
 40
27.699421
 50
179.667316
 51
194.498468
  6
CONTINUOUS
  0
ARC
  8
WHITE
 10
1239.598615
 20
861.037745
 30
0.000000
 40
25.325463
 50
166.293897
 51
180.605172
  6
CONTINUOUS
  0
ARC
  8
WHITE
 10
1231.460013
 20
862.934967
 30
0.000000
 40
16.969299
 50
152.259945
 51
166.006301
  6
CONTINUOUS
  0
ARC
  8
WHITE
 10
1225.550487
 20
866.021171
 30
0.000000
 40
10.302474
 50
137.829369
 51
152.153436
  6
CONTINUOUS
  0
ARC
  8
WHITE
 10
1224.295215
 20
866.931833
 30
0.000000
 40
8.762373
 50
114.874062
 51
136.732222
  6
CONTINUOUS
  0
ARC
  8
WHITE
 10
1223.456053
 20
868.888953
 30
0.000000
 40
6.634122
 50
90.360170
 51
115.408645
  6
CONTINUOUS
  0
ARC
  8
WHITE
 10
1223.597766
 20
867.089415
 30
0.000000
 40
8.435524
 50
61.905652
 51
91.245897
  6
CONTINUOUS
  0
ARC
  8
WHITE
 10
1223.760154
 20
867.746041
 30
0.000000
 40
7.781563
 50
37.518427
 51
60.683537
  6
CONTINUOUS
  0
ARC
  8
WHITE
 10
1220.832132
 20
865.510525
 30
0.000000
 40
11.465417
 50
24.373123
 51
37.467968
  6
CONTINUOUS
  0
ARC
  8
WHITE
 10
1215.220635
 20
863.036221
 30
0.000000
 40
17.598000
 50
9.579520
 51
24.171426
  6
CONTINUOUS
  0
ARC
  8
WHITE
 10
1202.688158
 20
860.856570
 30
0.000000
 40
30.318515
 50
-0.447605
 51
9.699804
  6
CONTINUOUS
  0
ARC
  8
WHITE
 10
1207.811854
 20
860.363015
 30
0.000000
 40
25.195202
 50
-12.925519
 51
0.583773
  6
CONTINUOUS
  0
ARC
  8
WHITE
 10
1216.290163
 20
858.496591
 30
0.000000
 40
16.514411
 50
-26.615135
 51
-13.193820
  6
CONTINUOUS
  0
ARC
  8
WHITE
 10
1219.968653
 20
856.644228
 30
0.000000
 40
12.395861
 50
-38.888938
 51
-26.577544
  6
CONTINUOUS
  0
ARC
  8
WHITE
 10
1223.382753
 20
853.826535
 30
0.000000
 40
7.969620
 50
-63.726034
 51
-38.531080
  6
CONTINUOUS
  0
ARC
  8
WHITE
 10
1224.254715
 20
854.274909
 30
0.000000
 40
4.709968
 50
-147.978412
 51
-122.357052
  6
CONTINUOUS
  0
ARC
  8
WHITE
 10
1223.510778
 20
853.245340
 30
0.000000
 40
3.442980
 50
-121.068788
 51
-89.457401
  6
CONTINUOUS
  0
ARC
  8
WHITE
 10
1223.554728
 20
853.228061
 30
0.000000
 40
3.425566
 50
-90.189765
 51
-53.119247
  6
CONTINUOUS
  0
ARC
  8
WHITE
 10
1222.310839
 20
854.826372
 30
0.000000
 40
5.450672
 50
-52.743543
 51
-32.449158
  6
CONTINUOUS
  0
ARC
  8
WHITE
 10
1220.017328
 20
856.478123
 30
0.000000
 40
8.273952
 50
-33.579879
 51
-21.289433
  6
CONTINUOUS
  0
ARC
  8
WHITE
 10
1214.233994
 20
858.517698
 30
0.000000
 40
14.404529
 50
-20.496193
 51
-7.208103
  6
CONTINUOUS
  0
ARC
  8
WHITE
 10
1197.799559
 20
860.769092
 30
0.000000
 40
30.992047
 50
-7.525189
 51
0.439489
  6
CONTINUOUS
  0
ARC
  8
WHITE
 10
1201.352883
 20
861.423137
 30
0.000000
 40
27.440969
 50
-0.869299
 51
10.002967
  6
CONTINUOUS
  0
ARC
  8
WHITE
 10
1218.826433
 20
864.521387
 30
0.000000
 40
9.694889
 50
9.908343
 51
26.231682
  6
CONTINUOUS
  0
ARC
  8
WHITE
 10
1220.918547
 20
865.119620
 30
0.000000
 40
7.563776
 50
29.172805
 51
50.969255
  6
CONTINUOUS
  0
ARC
  8
WHITE
 10
1223.701461
 20
868.644318
 30
0.000000
 40
3.073802
 50
49.890977
 51
88.135926
  6
CONTINUOUS
  0
ARC
  8
WHITE
 10
1223.776503
 20
868.016979
 30
0.000000
 40
3.699598
 50
89.613680
 51
124.864711
  6
CONTINUOUS
  0
ARC
  8
WHITE
 10
1224.772454
 20
866.679058
 30
0.000000
 40
5.366950
 50
125.423828
 51
145.963412
  6
CONTINUOUS
  0
ARC
  8
WHITE
 10
1226.644092
 20
865.238313
 30
0.000000
 40
7.725742
 50
144.878207
 51
157.808807
  6
CONTINUOUS
  0
ARC
  8
WHITE
 10
1232.128504
 20
863.223867
 30
0.000000
 40
13.566336
 50
158.679792
 51
172.593759
  6
CONTINUOUS
  0
ARC
  8
WHITE
 10
1248.235102
 20
860.947901
 30
0.000000
 40
29.832488
 50
172.246554
 51
180.465095
  6
CONTINUOUS
  0
ARC
  8
WHITE
 10
1246.475011
 20
860.420861
 30
0.000000
 40
28.072859
 50
179.418560
 51
189.068684
  6
CONTINUOUS
  0
ARC
  8
WHITE
 10
1232.190719
 20
858.163175
 30
0.000000
 40
13.611284
 50
-170.838700
 51
-159.113814
  6
CONTINUOUS
  0
ARC
  8
WHITE
 10
1227.313322
 20
856.368949
 30
0.000000
 40
8.414947
 50
-158.688082
 51
-146.932272
  6
CONTINUOUS
  0
ARC
  8
WHITE
 10
371.394756
 20
553.616125
 30
0.000000
 40
16.469092
 50
-132.089811
 51
-122.753118
  6
CONTINUOUS
  0
ARC
  8
WHITE
 10
365.154746
 20
546.928179
 30
0.000000
 40
7.324846
 50
-155.186332
 51
-130.933736
  6
CONTINUOUS
  0
ARC
  8
WHITE
 10
365.134135
 20
546.690652
 30
0.000000
 40
7.209425
 50
179.149071
 51
203.168761
  6
CONTINUOUS
  0
ARC
  8
WHITE
 10
365.962018
 20
546.912612
 30
0.000000
 40
8.037335
 50
158.696314
 51
180.819064
  6
CONTINUOUS
  0
ARC
  8
WHITE
 10
364.924030
 20
547.175428
 30
0.000000
 40
6.976045
 50
121.306551
 51
157.610008
  6
CONTINUOUS
  0
ARC
  8
WHITE
 10
365.217766
 20
546.729007
 30
0.000000
 40
7.510121
 50
104.150083
 51
121.451500
  6
CONTINUOUS
  0
ARC
  8
WHITE
 10
365.762791
 20
544.454539
 30
0.000000
 40
9.848856
 50
89.553840
 51
103.989901
  6
CONTINUOUS
  0
ARC
  8
WHITE
 10
365.940541
 20
544.808903
 30
0.000000
 40
9.494730
 50
72.460851
 51
90.609847
  6
CONTINUOUS
  0
ARC
  8
WHITE
 10
366.619062
 20
546.968806
 30
0.000000
 40
7.230762
 50
39.635529
 51
72.429747
  6
CONTINUOUS
  0
ARC
  8
WHITE
 10
367.880503
 20
548.187289
 30
0.000000
 40
5.483662
 50
17.722150
 51
38.238431
  6
CONTINUOUS
  0
ARC
  8
WHITE
 10
366.690006
 20
547.852581
 30
0.000000
 40
6.719689
 50
-0.559471
 51
17.350694
  6
CONTINUOUS
  0
ARC
  8
WHITE
 10
367.547453
 20
547.636592
 30
0.000000
 40
5.863851
 50
-36.714069
 51
1.469475
  6
CONTINUOUS
  0
ARC
  8
WHITE
 10
363.426203
 20
550.960627
 30
0.000000
 40
11.156553
 50
-48.505359
 51
-37.745710
  6
CONTINUOUS
  0
ARC
  8
WHITE
 10
358.329429
 20
556.667181
 30
0.000000
 40
18.807766
 50
-55.986635
 51
-48.393566
  6
CONTINUOUS
  0
ARC
  8
WHITE
 10
362.098770
 20
527.509147
 30
0.000000
 40
15.155090
 50
52.004716
 51
63.545205
  6
CONTINUOUS
  0
ARC
  8
WHITE
 10
365.921221
 20
532.255260
 30
0.000000
 40
9.062227
 50
28.115778
 51
52.577765
  6
CONTINUOUS
  0
ARC
  8
WHITE
 10
367.180324
 20
533.083325
 30
0.000000
 40
7.562713
 50
-0.534512
 51
27.077857
  6
CONTINUOUS
  0
ARC
  8
WHITE
 10
366.146815
 20
532.853898
 30
0.000000
 40
8.597362
 50
-22.829911
 51
1.058857
  6
CONTINUOUS
  0
ARC
  8
WHITE
 10
367.848598
 20
532.249402
 30
0.000000
 40
6.795136
 50
-44.628027
 51
-23.699660
  6
CONTINUOUS
  0
ARC
  8
WHITE
 10
366.223440
 20
534.036574
 30
0.000000
 40
9.208143
 50
-69.342644
 51
-45.438343
  6
CONTINUOUS
  0
ARC
  8
WHITE
 10
365.611535
 20
535.905000
 30
0.000000
 40
11.172645
 50
-90.705885
 51
-69.786634
  6
CONTINUOUS
  0
ARC
  8
WHITE
 10
365.363689
 20
536.095664
 30
0.000000
 40
11.362995
 50
-107.115406
 51
-89.444318
  6
CONTINUOUS
  0
ARC
  8
WHITE
 10
364.797702
 20
534.046841
 30
0.000000
 40
9.238546
 50
-122.702078
 51
-107.500176
  6
CONTINUOUS
  0
ARC
  8
WHITE
 10
363.348630
 20
532.109170
 30
0.000000
 40
6.827302
 50
-151.143004
 51
-121.254162
  6
CONTINUOUS
  0
ARC
  8
WHITE
 10
364.007125
 20
532.218116
 30
0.000000
 40
7.459925
 50
178.686512
 51
207.148691
  6
CONTINUOUS
  0
ARC
  8
WHITE
 10
363.467687
 20
532.458894
 30
0.000000
 40
6.918879
 50
161.702764
 51
180.577834
  6
CONTINUOUS
  0
ARC
  8
WHITE
 10
362.778292
 20
532.575072
 30
0.000000
 40
6.228769
 50
130.237097
 51
160.726483
  6
CONTINUOUS
  0
ARC
  8
WHITE
 10
367.464046
 20
527.539887
 30
0.000000
 40
13.103310
 50
122.753767
 51
131.656214
  6
CONTINUOUS
  0
ARC
  8
WHITE
 10
372.496013
 20
519.796599
 30
0.000000
 40
22.337927
 50
116.626851
 51
122.862912
  6
CONTINUOUS
  0
ARC
  8
WHITE
 10
373.531800
 20
523.660899
 30
0.000000
 40
17.063311
 50
118.261487
 51
126.774175
  6
CONTINUOUS
  0
ARC
  8
WHITE
 10
368.132212
 20
530.650607
 30
0.000000
 40
8.233215
 50
125.795679
 51
146.619885
  6
CONTINUOUS
  0
ARC
  8
WHITE
 10
364.831544
 20
532.860788
 30
0.000000
 40
4.261111
 50
147.017748
 51
179.402190
  6
CONTINUOUS
  0
ARC
  8
WHITE
 10
364.345992
 20
532.867816
 30
0.000000
 40
3.775512
 50
179.431961
 51
232.220682
  6
CONTINUOUS
  0
ARC
  8
WHITE
 10
365.414522
 20
533.975237
 30
0.000000
 40
5.307995
 50
-129.572643
 51
-88.662625
  6
CONTINUOUS
  0
ARC
  8
WHITE
 10
365.608615
 20
534.429682
 30
0.000000
 40
5.761423
 50
-90.698212
 51
-70.402088
  6
CONTINUOUS
  0
ARC
  8
WHITE
 10
365.830096
 20
533.599556
 30
0.000000
 40
4.905594
 50
-69.586960
 51
-36.219386
  6
CONTINUOUS
  0
ARC
  8
WHITE
 10
366.498149
 20
533.138522
 30
0.000000
 40
4.094284
 50
-36.538366
 51
0.647859
  6
CONTINUOUS
  0
ARC
  8
WHITE
 10
366.106220
 20
533.192523
 30
0.000000
 40
4.485957
 50
-0.098437
 51
44.474603
  6
CONTINUOUS
  0
ARC
  8
WHITE
 10
363.819490
 20
531.081006
 30
0.000000
 40
7.597592
 50
43.755361
 51
59.276709
  6
CONTINUOUS
  0
ARC
  8
WHITE
 10
360.722774
 20
525.939690
 30
0.000000
 40
13.599431
 50
59.127497
 51
69.648401
  6
CONTINUOUS
  0
ARC
  8
WHITE
 10
365.527884
 20
546.940705
 30
0.000000
 40
3.496963
 50
133.295425
 51
181.990792
  6
CONTINUOUS
  0
ARC
  8
WHITE
 10
365.996189
 20
546.824455
 30
0.000000
 40
3.963161
 50
-179.924392
 51
-138.859768
  6
CONTINUOUS
  0
ARC
  8
WHITE
 10
367.907451
 20
548.394831
 30
0.000000
 40
6.436128
 50
-139.525438
 51
-124.795897
  6
CONTINUOUS
  0
ARC
  8
WHITE
 10
370.508107
 20
552.100541
 30
0.000000
 40
10.963317
 50
-124.905398
 51
-114.584365
  6
CONTINUOUS
  0
ARC
  8
WHITE
 10
357.543431
 20
553.711722
 30
0.000000
 40
14.308460
 50
-54.033272
 51
-46.274106
  6
CONTINUOUS
  0
ARC
  8
WHITE
 10
362.391435
 20
548.786527
 30
0.000000
 40
7.398924
 50
-47.041490
 51
-28.930326
  6
CONTINUOUS
  0
ARC
  8
WHITE
 10
365.485586
 20
547.068204
 30
0.000000
 40
3.859671
 50
-28.824798
 51
-0.822886
  6
CONTINUOUS
  0
ARC
  8
WHITE
 10
365.841758
 20
547.025006
 30
0.000000
 40
3.503122
 50
-0.200083
 51
43.889912
  6
CONTINUOUS
  0
ARC
  8
WHITE
 10
365.925150
 20
547.194497
 30
0.000000
 40
3.326143
 50
42.781641
 51
92.217148
  6
CONTINUOUS
  0
ARC
  8
WHITE
 10
365.713912
 20
546.770856
 30
0.000000
 40
3.748203
 50
88.737869
 51
133.584651
  6
CONTINUOUS
  0
ARC
  8
WHITE
 10
1960.604591
 20
849.650842
 30
0.000000
 40
6.918879
 50
161.702764
 51
180.577834
  6
CONTINUOUS
  0
ARC
  8
WHITE
 10
1959.915195
 20
849.767020
 30
0.000000
 40
6.228769
 50
130.237097
 51
160.726483
  6
CONTINUOUS
  0
ARC
  8
WHITE
 10
1964.600949
 20
844.731835
 30
0.000000
 40
13.103310
 50
122.753767
 51
131.656214
  6
CONTINUOUS
  0
ARC
  8
WHITE
 10
1969.632916
 20
836.988547
 30
0.000000
 40
22.337927
 50
116.626851
 51
122.862912
  6
CONTINUOUS
  0
ARC
  8
WHITE
 10
1968.531659
 20
870.808073
 30
0.000000
 40
16.469092
 50
-132.089811
 51
-122.753118
  6
CONTINUOUS
  0
ARC
  8
WHITE
 10
1962.291649
 20
864.120127
 30
0.000000
 40
7.324846
 50
-155.186332
 51
-130.933736
  6
CONTINUOUS
  0
ARC
  8
WHITE
 10
1962.271038
 20
863.882600
 30
0.000000
 40
7.209425
 50
179.149071
 51
203.168761
  6
CONTINUOUS
  0
ARC
  8
WHITE
 10
1963.098921
 20
864.104560
 30
0.000000
 40
8.037335
 50
158.696314
 51
180.819064
  6
CONTINUOUS
  0
ARC
  8
WHITE
 10
1962.060933
 20
864.367376
 30
0.000000
 40
6.976045
 50
121.306551
 51
157.610008
  6
CONTINUOUS
  0
ARC
  8
WHITE
 10
1962.354669
 20
863.920955
 30
0.000000
 40
7.510121
 50
104.150083
 51
121.451500
  6
CONTINUOUS
  0
ARC
  8
WHITE
 10
1962.899694
 20
861.646486
 30
0.000000
 40
9.848856
 50
89.553840
 51
103.989901
  6
CONTINUOUS
  0
ARC
  8
WHITE
 10
1963.077444
 20
862.000851
 30
0.000000
 40
9.494730
 50
72.460851
 51
90.609847
  6
CONTINUOUS
  0
ARC
  8
WHITE
 10
1963.755965
 20
864.160754
 30
0.000000
 40
7.230762
 50
39.635529
 51
72.429747
  6
CONTINUOUS
  0
ARC
  8
WHITE
 10
1965.017406
 20
865.379237
 30
0.000000
 40
5.483662
 50
17.722150
 51
38.238431
  6
CONTINUOUS
  0
ARC
  8
WHITE
 10
1963.826910
 20
865.044529
 30
0.000000
 40
6.719689
 50
-0.559471
 51
17.350694
  6
CONTINUOUS
  0
ARC
  8
WHITE
 10
1964.684356
 20
864.828540
 30
0.000000
 40
5.863851
 50
-36.714069
 51
1.469475
  6
CONTINUOUS
  0
ARC
  8
WHITE
 10
1960.563106
 20
868.152575
 30
0.000000
 40
11.156553
 50
-48.505359
 51
-37.745710
  6
CONTINUOUS
  0
ARC
  8
WHITE
 10
1955.466332
 20
873.859128
 30
0.000000
 40
18.807766
 50
-55.986635
 51
-48.393566
  6
CONTINUOUS
  0
ARC
  8
WHITE
 10
1959.235673
 20
844.701095
 30
0.000000
 40
15.155090
 50
52.004716
 51
63.545205
  6
CONTINUOUS
  0
ARC
  8
WHITE
 10
1963.058124
 20
849.447208
 30
0.000000
 40
9.062227
 50
28.115778
 51
52.577765
  6
CONTINUOUS
  0
ARC
  8
WHITE
 10
1964.317227
 20
850.275272
 30
0.000000
 40
7.562713
 50
-0.534512
 51
27.077857
  6
CONTINUOUS
  0
ARC
  8
WHITE
 10
1963.283718
 20
850.045846
 30
0.000000
 40
8.597362
 50
-22.829911
 51
1.058857
  6
CONTINUOUS
  0
ARC
  8
WHITE
 10
1964.985501
 20
849.441350
 30
0.000000
 40
6.795136
 50
-44.628027
 51
-23.699660
  6
CONTINUOUS
  0
ARC
  8
WHITE
 10
1963.360343
 20
851.228522
 30
0.000000
 40
9.208143
 50
-69.342644
 51
-45.438343
  6
CONTINUOUS
  0
ARC
  8
WHITE
 10
1962.748438
 20
853.096948
 30
0.000000
 40
11.172645
 50
-90.705885
 51
-69.786634
  6
CONTINUOUS
  0
ARC
  8
WHITE
 10
1962.500592
 20
853.287612
 30
0.000000
 40
11.362995
 50
-107.115406
 51
-89.444318
  6
CONTINUOUS
  0
ARC
  8
WHITE
 10
1961.934605
 20
851.238789
 30
0.000000
 40
9.238546
 50
-122.702078
 51
-107.500176
  6
CONTINUOUS
  0
ARC
  8
WHITE
 10
1960.485534
 20
849.301118
 30
0.000000
 40
6.827302
 50
-151.143004
 51
-121.254162
  6
CONTINUOUS
  0
ARC
  8
WHITE
 10
1961.144028
 20
849.410064
 30
0.000000
 40
7.459925
 50
178.686512
 51
207.148691
  6
CONTINUOUS
  0
ARC
  8
WHITE
 10
1962.551425
 20
851.167185
 30
0.000000
 40
5.307995
 50
-129.572643
 51
-88.662625
  6
CONTINUOUS
  0
ARC
  8
WHITE
 10
1962.745518
 20
851.621630
 30
0.000000
 40
5.761423
 50
-90.698212
 51
-70.402088
  6
CONTINUOUS
  0
ARC
  8
WHITE
 10
1962.967000
 20
850.791504
 30
0.000000
 40
4.905594
 50
-69.586960
 51
-36.219386
  6
CONTINUOUS
  0
ARC
  8
WHITE
 10
1963.635052
 20
850.330470
 30
0.000000
 40
4.094284
 50
-36.538366
 51
0.647859
  6
CONTINUOUS
  0
ARC
  8
WHITE
 10
1963.243123
 20
850.384471
 30
0.000000
 40
4.485957
 50
-0.098437
 51
44.474603
  6
CONTINUOUS
  0
ARC
  8
WHITE
 10
1960.956393
 20
848.272954
 30
0.000000
 40
7.597592
 50
43.755361
 51
59.276709
  6
CONTINUOUS
  0
ARC
  8
WHITE
 10
1957.859677
 20
843.131638
 30
0.000000
 40
13.599431
 50
59.127497
 51
69.648401
  6
CONTINUOUS
  0
ARC
  8
WHITE
 10
1970.668703
 20
840.852847
 30
0.000000
 40
17.063311
 50
118.261487
 51
126.774175
  6
CONTINUOUS
  0
ARC
  8
WHITE
 10
1965.269115
 20
847.842555
 30
0.000000
 40
8.233215
 50
125.795679
 51
146.619885
  6
CONTINUOUS
  0
ARC
  8
WHITE
 10
1961.968448
 20
850.052736
 30
0.000000
 40
4.261111
 50
147.017748
 51
179.402190
  6
CONTINUOUS
  0
ARC
  8
WHITE
 10
1961.482895
 20
850.059764
 30
0.000000
 40
3.775512
 50
179.431961
 51
232.220682
  6
CONTINUOUS
  0
ARC
  8
WHITE
 10
1962.622489
 20
864.260152
 30
0.000000
 40
3.859671
 50
-28.824798
 51
-0.822886
  6
CONTINUOUS
  0
ARC
  8
WHITE
 10
1962.978661
 20
864.216954
 30
0.000000
 40
3.503122
 50
-0.200083
 51
43.889912
  6
CONTINUOUS
  0
ARC
  8
WHITE
 10
1963.062053
 20
864.386444
 30
0.000000
 40
3.326143
 50
42.781641
 51
92.217148
  6
CONTINUOUS
  0
ARC
  8
WHITE
 10
1962.850815
 20
863.962804
 30
0.000000
 40
3.748203
 50
88.737869
 51
133.584651
  6
CONTINUOUS
  0
ARC
  8
WHITE
 10
1962.664787
 20
864.132653
 30
0.000000
 40
3.496963
 50
133.295425
 51
181.990792
  6
CONTINUOUS
  0
ARC
  8
WHITE
 10
1963.133092
 20
864.016402
 30
0.000000
 40
3.963161
 50
-179.924392
 51
-138.859768
  6
CONTINUOUS
  0
ARC
  8
WHITE
 10
1965.044354
 20
865.586779
 30
0.000000
 40
6.436128
 50
-139.525438
 51
-124.795897
  6
CONTINUOUS
  0
ARC
  8
WHITE
 10
1967.645011
 20
869.292489
 30
0.000000
 40
10.963317
 50
-124.905398
 51
-114.584365
  6
CONTINUOUS
  0
ARC
  8
WHITE
 10
1954.680334
 20
870.903670
 30
0.000000
 40
14.308460
 50
-54.033272
 51
-46.274106
  6
CONTINUOUS
  0
ARC
  8
WHITE
 10
1959.528338
 20
865.978475
 30
0.000000
 40
7.398924
 50
-47.041490
 51
-28.930326
  6
CONTINUOUS
  0
ARC
  8
WHITE
 10
2411.980160
 20
13.592920
 30
0.000000
 40
9.848856
 50
89.553840
 51
103.989901
  6
CONTINUOUS
  0
ARC
  8
WHITE
 10
2412.157911
 20
13.947284
 30
0.000000
 40
9.494730
 50
72.460851
 51
90.609847
  6
CONTINUOUS
  0
ARC
  8
WHITE
 10
2412.836432
 20
16.107187
 30
0.000000
 40
7.230762
 50
39.635529
 51
72.429747
  6
CONTINUOUS
  0
ARC
  8
WHITE
 10
2414.097873
 20
17.325670
 30
0.000000
 40
5.483662
 50
17.722150
 51
38.238431
  6
CONTINUOUS
  0
ARC
  8
WHITE
 10
2412.907376
 20
16.990962
 30
0.000000
 40
6.719689
 50
-0.559471
 51
17.350694
  6
CONTINUOUS
  0
ARC
  8
WHITE
 10
2413.764822
 20
16.774973
 30
0.000000
 40
5.863851
 50
-36.714069
 51
1.469475
  6
CONTINUOUS
  0
ARC
  8
WHITE
 10
2409.643573
 20
20.099008
 30
0.000000
 40
11.156553
 50
-48.505359
 51
-37.745710
  6
CONTINUOUS
  0
ARC
  8
WHITE
 10
2404.546799
 20
25.805562
 30
0.000000
 40
18.807766
 50
-55.986635
 51
-48.393566
  6
CONTINUOUS
  0
ARC
  8
WHITE
 10
2408.316140
 20
-3.352472
 30
0.000000
 40
15.155090
 50
52.004716
 51
63.545205
  6
CONTINUOUS
  0
ARC
  8
WHITE
 10
2412.138591
 20
1.393641
 30
0.000000
 40
9.062227
 50
28.115778
 51
52.577765
  6
CONTINUOUS
  0
ARC
  8
WHITE
 10
2413.397694
 20
2.221706
 30
0.000000
 40
7.562713
 50
-0.534512
 51
27.077857
  6
CONTINUOUS
  0
ARC
  8
WHITE
 10
2412.364184
 20
1.992279
 30
0.000000
 40
8.597362
 50
-22.829911
 51
1.058857
  6
CONTINUOUS
  0
ARC
  8
WHITE
 10
2414.065967
 20
1.387783
 30
0.000000
 40
6.795136
 50
-44.628027
 51
-23.699660
  6
CONTINUOUS
  0
ARC
  8
WHITE
 10
2412.440810
 20
3.174955
 30
0.000000
 40
9.208143
 50
-69.342644
 51
-45.438343
  6
CONTINUOUS
  0
ARC
  8
WHITE
 10
2411.828905
 20
5.043381
 30
0.000000
 40
11.172645
 50
-90.705885
 51
-69.786634
  6
CONTINUOUS
  0
ARC
  8
WHITE
 10
2411.581059
 20
5.234045
 30
0.000000
 40
11.362995
 50
-107.115406
 51
-89.444318
  6
CONTINUOUS
  0
ARC
  8
WHITE
 10
2411.015071
 20
3.185222
 30
0.000000
 40
9.238546
 50
-122.702078
 51
-107.500176
  6
CONTINUOUS
  0
ARC
  8
WHITE
 10
2409.566000
 20
1.247551
 30
0.000000
 40
6.827302
 50
-151.143004
 51
-121.254162
  6
CONTINUOUS
  0
ARC
  8
WHITE
 10
2410.224495
 20
1.356497
 30
0.000000
 40
7.459925
 50
178.686512
 51
207.148691
  6
CONTINUOUS
  0
ARC
  8
WHITE
 10
2409.685057
 20
1.597275
 30
0.000000
 40
6.918879
 50
161.702764
 51
180.577834
  6
CONTINUOUS
  0
ARC
  8
WHITE
 10
2408.995661
 20
1.713453
 30
0.000000
 40
6.228769
 50
130.237097
 51
160.726483
  6
CONTINUOUS
  0
ARC
  8
WHITE
 10
2413.681415
 20
-3.321732
 30
0.000000
 40
13.103310
 50
122.753767
 51
131.656214
  6
CONTINUOUS
  0
ARC
  8
WHITE
 10
2418.713382
 20
-11.065020
 30
0.000000
 40
22.337927
 50
116.626851
 51
122.862912
  6
CONTINUOUS
  0
ARC
  8
WHITE
 10
2417.612126
 20
22.754506
 30
0.000000
 40
16.469092
 50
-132.089811
 51
-122.753118
  6
CONTINUOUS
  0
ARC
  8
WHITE
 10
2411.372116
 20
16.066560
 30
0.000000
 40
7.324846
 50
-155.186332
 51
-130.933736
  6
CONTINUOUS
  0
ARC
  8
WHITE
 10
2411.351504
 20
15.829033
 30
0.000000
 40
7.209425
 50
179.149071
 51
203.168761
  6
CONTINUOUS
  0
ARC
  8
WHITE
 10
2412.179387
 20
16.050993
 30
0.000000
 40
8.037335
 50
158.696314
 51
180.819064
  6
CONTINUOUS
  0
ARC
  8
WHITE
 10
2411.141400
 20
16.313809
 30
0.000000
 40
6.976045
 50
121.306551
 51
157.610008
  6
CONTINUOUS
  0
ARC
  8
WHITE
 10
2411.435135
 20
15.867388
 30
0.000000
 40
7.510121
 50
104.150083
 51
121.451500
  6
CONTINUOUS
  0
ARC
  8
WHITE
 10
2406.940143
 20
-4.921929
 30
0.000000
 40
13.599431
 50
59.127497
 51
69.648401
  6
CONTINUOUS
  0
ARC
  8
WHITE
 10
2419.749170
 20
-7.200720
 30
0.000000
 40
17.063311
 50
118.261487
 51
126.774175
  6
CONTINUOUS
  0
ARC
  8
WHITE
 10
2414.349582
 20
-0.211012
 30
0.000000
 40
8.233215
 50
125.795679
 51
146.619885
  6
CONTINUOUS
  0
ARC
  8
WHITE
 10
2411.048914
 20
1.999169
 30
0.000000
 40
4.261111
 50
147.017748
 51
179.402190
  6
CONTINUOUS
  0
ARC
  8
WHITE
 10
2410.563362
 20
2.006197
 30
0.000000
 40
3.775512
 50
179.431961
 51
232.220682
  6
CONTINUOUS
  0
ARC
  8
WHITE
 10
2411.631891
 20
3.113618
 30
0.000000
 40
5.307995
 50
-129.572643
 51
-88.662625
  6
CONTINUOUS
  0
ARC
  8
WHITE
 10
2411.825985
 20
3.568063
 30
0.000000
 40
5.761423
 50
-90.698212
 51
-70.402088
  6
CONTINUOUS
  0
ARC
  8
WHITE
 10
2412.047466
 20
2.737937
 30
0.000000
 40
4.905594
 50
-69.586960
 51
-36.219386
  6
CONTINUOUS
  0
ARC
  8
WHITE
 10
2412.715518
 20
2.276903
 30
0.000000
 40
4.094284
 50
-36.538366
 51
0.647859
  6
CONTINUOUS
  0
ARC
  8
WHITE
 10
2412.323590
 20
2.330904
 30
0.000000
 40
4.485957
 50
-0.098437
 51
44.474603
  6
CONTINUOUS
  0
ARC
  8
WHITE
 10
2410.036860
 20
0.219387
 30
0.000000
 40
7.597592
 50
43.755361
 51
59.276709
  6
CONTINUOUS
  0
ARC
  8
WHITE
 10
2411.931282
 20
15.909237
 30
0.000000
 40
3.748203
 50
88.737869
 51
133.584651
  6
CONTINUOUS
  0
ARC
  8
WHITE
 10
2411.745253
 20
16.079086
 30
0.000000
 40
3.496963
 50
133.295425
 51
181.990792
  6
CONTINUOUS
  0
ARC
  8
WHITE
 10
2412.213558
 20
15.962836
 30
0.000000
 40
3.963161
 50
-179.924392
 51
-138.859768
  6
CONTINUOUS
  0
ARC
  8
WHITE
 10
2414.124820
 20
17.533212
 30
0.000000
 40
6.436128
 50
-139.525438
 51
-124.795897
  6
CONTINUOUS
  0
ARC
  8
WHITE
 10
2416.725477
 20
21.238922
 30
0.000000
 40
10.963317
 50
-124.905398
 51
-114.584365
  6
CONTINUOUS
  0
ARC
  8
WHITE
 10
2403.760801
 20
22.850103
 30
0.000000
 40
14.308460
 50
-54.033272
 51
-46.274106
  6
CONTINUOUS
  0
ARC
  8
WHITE
 10
2408.608804
 20
17.924908
 30
0.000000
 40
7.398924
 50
-47.041490
 51
-28.930326
  6
CONTINUOUS
  0
ARC
  8
WHITE
 10
2411.702955
 20
16.206585
 30
0.000000
 40
3.859671
 50
-28.824798
 51
-0.822886
  6
CONTINUOUS
  0
ARC
  8
WHITE
 10
2412.059128
 20
16.163387
 30
0.000000
 40
3.503122
 50
-0.200083
 51
43.889912
  6
CONTINUOUS
  0
ARC
  8
WHITE
 10
2412.142520
 20
16.332878
 30
0.000000
 40
3.326143
 50
42.781641
 51
92.217148
  6
CONTINUOUS
  0
ARC
  8
WHITE
 10
0.524406
 20
1207.934519
 30
0.000000
 40
21.241140
 50
166.186082
 51
180.702145
  6
CONTINUOUS
  0
ARC
  8
WHITE
 10
-12.742677
 20
1201.868969
 30
0.000000
 40
9.862105
 50
121.515825
 51
143.939276
  6
CONTINUOUS
  0
ARC
  8
WHITE
 10
-14.767435
 20
1205.010298
 30
0.000000
 40
6.126301
 50
90.114292
 51
120.730031
  6
CONTINUOUS
  0
ARC
  8
WHITE
 10
-14.702660
 20
1204.456479
 30
0.000000
 40
6.680552
 50
65.201272
 51
90.660367
  6
CONTINUOUS
  0
ARC
  8
WHITE
 10
-14.790048
 20
1204.450841
 30
0.000000
 40
6.722763
 50
45.566708
 51
64.545309
  6
CONTINUOUS
  0
ARC
  8
WHITE
 10
-15.982734
 20
1203.179615
 30
0.000000
 40
8.465563
 50
21.565079
 51
45.825937
  6
CONTINUOUS
  0
ARC
  8
WHITE
 10
-17.529202
 20
1202.691631
 30
0.000000
 40
10.083793
 50
-0.771005
 51
20.913963
  6
CONTINUOUS
  0
ARC
  8
WHITE
 10
-18.038006
 20
1202.445407
 30
0.000000
 40
10.592261
 50
-19.508868
 51
0.597917
  6
CONTINUOUS
  0
ARC
  8
WHITE
 10
-16.928358
 20
1202.178349
 30
0.000000
 40
9.457880
 50
-52.366602
 51
-20.228846
  6
CONTINUOUS
  0
ARC
  8
WHITE
 10
-15.641510
 20
1200.502828
 30
0.000000
 40
7.345220
 50
-90.658232
 51
-52.335506
  6
CONTINUOUS
  0
ARC
  8
WHITE
 10
-15.746255
 20
1200.465146
 30
0.000000
 40
7.307082
 50
-120.949123
 51
-89.840328
  6
CONTINUOUS
  0
ARC
  8
WHITE
 10
-15.077570
 20
1201.694062
 30
0.000000
 40
8.705117
 50
-141.841724
 51
-120.563935
  6
CONTINUOUS
  0
ARC
  8
WHITE
 10
-13.961093
 20
1202.488762
 30
0.000000
 40
10.074214
 50
-157.076305
 51
-142.210960
  6
CONTINUOUS
  0
ARC
  8
WHITE
 10
-10.473131
 20
1203.989643
 30
0.000000
 40
13.871333
 50
-165.909029
 51
-156.978123
  6
CONTINUOUS
  0
ARC
  8
WHITE
 10
1.657543
 20
1207.272732
 30
0.000000
 40
26.437316
 50
179.828986
 51
194.591481
  6
CONTINUOUS
  0
ARC
  8
WHITE
 10
0.123390
 20
1207.577278
 30
0.000000
 40
24.904067
 50
166.542280
 51
180.519122
  6
CONTINUOUS
  0
ARC
  8
WHITE
 10
-6.811504
 20
1209.150354
 30
0.000000
 40
17.793693
 50
153.162117
 51
166.271605
  6
CONTINUOUS
  0
ARC
  8
WHITE
 10
-11.307741
 20
1211.532852
 30
0.000000
 40
12.706499
 50
140.650255
 51
153.594855
  6
CONTINUOUS
  0
ARC
  8
WHITE
 10
-14.561195
 20
1214.175867
 30
0.000000
 40
8.514845
 50
114.184906
 51
140.522113
  6
CONTINUOUS
  0
ARC
  8
WHITE
 10
-14.224755
 20
1213.028597
 30
0.000000
 40
9.700622
 50
89.085785
 51
113.221487
  6
CONTINUOUS
  0
ARC
  8
WHITE
 10
-14.161164
 20
1212.519481
 30
0.000000
 40
10.208911
 50
61.124944
 51
89.488229
  6
CONTINUOUS
  0
LINE
  8
WHITE
 10
-9.231268
 20
1221.459167
 30
0.000000
 11
-9.231268
 21
1216.835512
 31
0.000000
  6
CONTINUOUS
  0
ARC
  8
WHITE
 10
-15.906103
 20
1209.093608
 30
0.000000
 40
10.222059
 50
49.233083
 51
65.564171
  6
CONTINUOUS
  0
ARC
  8
WHITE
 10
-14.095864
 20
1213.058043
 30
0.000000
 40
5.863895
 50
65.643355
 51
89.326796
  6
CONTINUOUS
  0
ARC
  8
WHITE
 10
-14.078690
 20
1213.901540
 30
0.000000
 40
5.020259
 50
89.409679
 51
121.139930
  6
CONTINUOUS
  0
ARC
  8
WHITE
 10
-13.372238
 20
1212.883933
 30
0.000000
 40
6.257055
 50
121.858066
 51
142.338282
  6
CONTINUOUS
  0
ARC
  8
WHITE
 10
-10.544524
 20
1210.694152
 30
0.000000
 40
9.833518
 50
142.304644
 51
166.401041
  6
CONTINUOUS
  0
ARC
  8
WHITE
 10
-11.786339
 20
1203.440115
 30
0.000000
 40
8.475041
 50
-158.959497
 51
-147.647541
  6
CONTINUOUS
  0
ARC
  8
WHITE
 10
-15.132046
 20
1201.239410
 30
0.000000
 40
4.471554
 50
-148.528102
 51
-122.443247
  6
CONTINUOUS
  0
ARC
  8
WHITE
 10
-15.805240
 20
1200.328275
 30
0.000000
 40
3.342424
 50
-121.083202
 51
-89.377103
  6
CONTINUOUS
  0
ARC
  8
WHITE
 10
-15.742611
 20
1200.252451
 30
0.000000
 40
3.266507
 50
-90.461178
 51
-62.120336
  6
CONTINUOUS
  0
ARC
  8
WHITE
 10
-16.515137
 20
1201.350417
 30
0.000000
 40
4.601400
 50
-60.010100
 51
-26.332878
  6
CONTINUOUS
  0
ARC
  8
WHITE
 10
-18.182327
 20
1202.167889
 30
0.000000
 40
6.458212
 50
-26.271695
 51
1.344140
  6
CONTINUOUS
  0
ARC
  8
WHITE
 10
-18.564473
 20
1202.393775
 30
0.000000
 40
6.838986
 50
-0.623260
 51
16.048649
  6
CONTINUOUS
  0
ARC
  8
WHITE
 10
-16.561580
 20
1202.983435
 30
0.000000
 40
4.751155
 50
15.892213
 51
47.650733
  6
CONTINUOUS
  0
ARC
  8
WHITE
 10
-15.471245
 20
1204.083117
 30
0.000000
 40
3.204590
 50
48.813237
 51
91.092458
  6
CONTINUOUS
  0
ARC
  8
WHITE
 10
-15.501074
 20
1203.251682
 30
0.000000
 40
4.035564
 50
90.443964
 51
132.366395
  6
CONTINUOUS
  0
ARC
  8
WHITE
 10
-13.490971
 20
1200.861528
 30
0.000000
 40
7.157177
 50
131.361792
 51
145.544841
  6
CONTINUOUS
  0
ARC
  8
WHITE
 10
-8.906245
 20
1197.675247
 30
0.000000
 40
12.740318
 50
145.394411
 51
155.044518
  6
CONTINUOUS
  0
ARC
  8
WHITE
 10
-4.660741
 20
1206.144131
 30
0.000000
 40
16.096407
 50
-168.919393
 51
-159.082505
  6
CONTINUOUS
  0
ARC
  8
WHITE
 10
176.448169
 20
553.076442
 30
0.000000
 40
8.465563
 50
21.565079
 51
45.825937
  6
CONTINUOUS
  0
ARC
  8
WHITE
 10
174.901701
 20
552.588458
 30
0.000000
 40
10.083793
 50
-0.771005
 51
20.913963
  6
CONTINUOUS
  0
ARC
  8
WHITE
 10
174.392898
 20
552.342234
 30
0.000000
 40
10.592261
 50
-19.508868
 51
0.597917
  6
CONTINUOUS
  0
ARC
  8
WHITE
 10
175.502546
 20
552.075176
 30
0.000000
 40
9.457880
 50
-52.366602
 51
-20.228846
  6
CONTINUOUS
  0
ARC
  8
WHITE
 10
176.789394
 20
550.399655
 30
0.000000
 40
7.345220
 50
-90.658232
 51
-52.335506
  6
CONTINUOUS
  0
ARC
  8
WHITE
 10
176.684648
 20
550.361973
 30
0.000000
 40
7.307082
 50
-120.949123
 51
-89.840328
  6
CONTINUOUS
  0
ARC
  8
WHITE
 10
177.353333
 20
551.590889
 30
0.000000
 40
8.705117
 50
-141.841724
 51
-120.563935
  6
CONTINUOUS
  0
ARC
  8
WHITE
 10
178.469811
 20
552.385589
 30
0.000000
 40
10.074214
 50
-157.076305
 51
-142.210960
  6
CONTINUOUS
  0
ARC
  8
WHITE
 10
181.957773
 20
553.886470
 30
0.000000
 40
13.871333
 50
-165.909029
 51
-156.978123
  6
CONTINUOUS
  0
ARC
  8
WHITE
 10
194.088447
 20
557.169559
 30
0.000000
 40
26.437316
 50
179.828986
 51
194.591481
  6
CONTINUOUS
  0
ARC
  8
WHITE
 10
192.554293
 20
557.474105
 30
0.000000
 40
24.904067
 50
166.542280
 51
180.519122
  6
CONTINUOUS
  0
ARC
  8
WHITE
 10
185.619400
 20
559.047181
 30
0.000000
 40
17.793693
 50
153.162117
 51
166.271605
  6
CONTINUOUS
  0
ARC
  8
WHITE
 10
181.123163
 20
561.429679
 30
0.000000
 40
12.706499
 50
140.650255
 51
153.594855
  6
CONTINUOUS
  0
ARC
  8
WHITE
 10
177.869708
 20
564.072694
 30
0.000000
 40
8.514845
 50
114.184906
 51
140.522113
  6
CONTINUOUS
  0
ARC
  8
WHITE
 10
178.206148
 20
562.925424
 30
0.000000
 40
9.700622
 50
89.085785
 51
113.221487
  6
CONTINUOUS
  0
ARC
  8
WHITE
 10
178.269740
 20
562.416308
 30
0.000000
 40
10.208911
 50
61.124944
 51
89.488229
  6
CONTINUOUS
  0
LINE
  8
WHITE
 10
183.199635
 20
571.355994
 30
0.000000
 11
183.199635
 21
566.732339
 31
0.000000
  6
CONTINUOUS
  0
ARC
  8
WHITE
 10
176.524800
 20
558.990435
 30
0.000000
 40
10.222059
 50
49.233083
 51
65.564171
  6
CONTINUOUS
  0
ARC
  8
WHITE
 10
178.335039
 20
562.954870
 30
0.000000
 40
5.863895
 50
65.643355
 51
89.326796
  6
CONTINUOUS
  0
ARC
  8
WHITE
 10
178.352213
 20
563.798367
 30
0.000000
 40
5.020259
 50
89.409679
 51
121.139930
  6
CONTINUOUS
  0
ARC
  8
WHITE
 10
179.058666
 20
562.780760
 30
0.000000
 40
6.257055
 50
121.858066
 51
142.338282
  6
CONTINUOUS
  0
ARC
  8
WHITE
 10
181.886379
 20
560.590979
 30
0.000000
 40
9.833518
 50
142.304644
 51
166.401041
  6
CONTINUOUS
  0
ARC
  8
WHITE
 10
192.955309
 20
557.831346
 30
0.000000
 40
21.241140
 50
166.186082
 51
180.702145
  6
CONTINUOUS
  0
ARC
  8
WHITE
 10
179.688226
 20
551.765796
 30
0.000000
 40
9.862105
 50
121.515825
 51
143.939276
  6
CONTINUOUS
  0
ARC
  8
WHITE
 10
177.663469
 20
554.907125
 30
0.000000
 40
6.126301
 50
90.114292
 51
120.730031
  6
CONTINUOUS
  0
ARC
  8
WHITE
 10
177.728244
 20
554.353306
 30
0.000000
 40
6.680552
 50
65.201272
 51
90.660367
  6
CONTINUOUS
  0
ARC
  8
WHITE
 10
177.640856
 20
554.347668
 30
0.000000
 40
6.722763
 50
45.566708
 51
64.545309
  6
CONTINUOUS
  0
ARC
  8
WHITE
 10
180.644565
 20
553.336942
 30
0.000000
 40
8.475041
 50
-158.959497
 51
-147.647541
  6
CONTINUOUS
  0
ARC
  8
WHITE
 10
177.298858
 20
551.136237
 30
0.000000
 40
4.471554
 50
-148.528102
 51
-122.443247
  6
CONTINUOUS
  0
ARC
  8
WHITE
 10
176.625664
 20
550.225102
 30
0.000000
 40
3.342424
 50
-121.083202
 51
-89.377103
  6
CONTINUOUS
  0
ARC
  8
WHITE
 10
176.688293
 20
550.149278
 30
0.000000
 40
3.266507
 50
-90.461178
 51
-62.120336
  6
CONTINUOUS
  0
ARC
  8
WHITE
 10
175.915767
 20
551.247244
 30
0.000000
 40
4.601400
 50
-60.010100
 51
-26.332878
  6
CONTINUOUS
  0
ARC
  8
WHITE
 10
174.248577
 20
552.064716
 30
0.000000
 40
6.458212
 50
-26.271695
 51
1.344140
  6
CONTINUOUS
  0
ARC
  8
WHITE
 10
173.866431
 20
552.290602
 30
0.000000
 40
6.838986
 50
-0.623260
 51
16.048649
  6
CONTINUOUS
  0
ARC
  8
WHITE
 10
175.869324
 20
552.880262
 30
0.000000
 40
4.751155
 50
15.892213
 51
47.650733
  6
CONTINUOUS
  0
ARC
  8
WHITE
 10
176.959658
 20
553.979944
 30
0.000000
 40
3.204590
 50
48.813237
 51
91.092458
  6
CONTINUOUS
  0
ARC
  8
WHITE
 10
176.929830
 20
553.148509
 30
0.000000
 40
4.035564
 50
90.443964
 51
132.366395
  6
CONTINUOUS
  0
ARC
  8
WHITE
 10
178.939933
 20
550.758355
 30
0.000000
 40
7.157177
 50
131.361792
 51
145.544841
  6
CONTINUOUS
  0
ARC
  8
WHITE
 10
183.524659
 20
547.572074
 30
0.000000
 40
12.740318
 50
145.394411
 51
155.044518
  6
CONTINUOUS
  0
ARC
  8
WHITE
 10
187.770163
 20
556.040958
 30
0.000000
 40
16.096407
 50
-168.919393
 51
-159.082505
  6
CONTINUOUS
  0
ARC
  8
WHITE
 10
187.668182
 20
712.881824
 30
0.000000
 40
9.862105
 50
121.515825
 51
143.939276
  6
CONTINUOUS
  0
ARC
  8
WHITE
 10
185.643425
 20
716.023153
 30
0.000000
 40
6.126301
 50
90.114292
 51
120.730031
  6
CONTINUOUS
  0
ARC
  8
WHITE
 10
185.708200
 20
715.469334
 30
0.000000
 40
6.680552
 50
65.201272
 51
90.660367
  6
CONTINUOUS
  0
ARC
  8
WHITE
 10
185.620812
 20
715.463696
 30
0.000000
 40
6.722763
 50
45.566708
 51
64.545309
  6
CONTINUOUS
  0
ARC
  8
WHITE
 10
184.428126
 20
714.192470
 30
0.000000
 40
8.465563
 50
21.565079
 51
45.825937
  6
CONTINUOUS
  0
ARC
  8
WHITE
 10
182.881657
 20
713.704486
 30
0.000000
 40
10.083793
 50
-0.771005
 51
20.913963
  6
CONTINUOUS
  0
ARC
  8
WHITE
 10
182.372854
 20
713.458262
 30
0.000000
 40
10.592261
 50
-19.508868
 51
0.597917
  6
CONTINUOUS
  0
ARC
  8
WHITE
 10
183.482502
 20
713.191204
 30
0.000000
 40
9.457880
 50
-52.366602
 51
-20.228846
  6
CONTINUOUS
  0
ARC
  8
WHITE
 10
184.769350
 20
711.515683
 30
0.000000
 40
7.345220
 50
-90.658232
 51
-52.335506
  6
CONTINUOUS
  0
ARC
  8
WHITE
 10
184.664604
 20
711.478001
 30
0.000000
 40
7.307082
 50
-120.949123
 51
-89.840328
  6
CONTINUOUS
  0
ARC
  8
WHITE
 10
185.333290
 20
712.706917
 30
0.000000
 40
8.705117
 50
-141.841724
 51
-120.563935
  6
CONTINUOUS
  0
ARC
  8
WHITE
 10
186.449767
 20
713.501617
 30
0.000000
 40
10.074214
 50
-157.076305
 51
-142.210960
  6
CONTINUOUS
  0
ARC
  8
WHITE
 10
189.937729
 20
715.002498
 30
0.000000
 40
13.871333
 50
-165.909029
 51
-156.978123
  6
CONTINUOUS
  0
ARC
  8
WHITE
 10
202.068403
 20
718.285587
 30
0.000000
 40
26.437316
 50
179.828986
 51
194.591481
  6
CONTINUOUS
  0
ARC
  8
WHITE
 10
200.534249
 20
718.590133
 30
0.000000
 40
24.904067
 50
166.542280
 51
180.519122
  6
CONTINUOUS
  0
ARC
  8
WHITE
 10
193.599356
 20
720.163209
 30
0.000000
 40
17.793693
 50
153.162117
 51
166.271605
  6
CONTINUOUS
  0
ARC
  8
WHITE
 10
189.103119
 20
722.545707
 30
0.000000
 40
12.706499
 50
140.650255
 51
153.594855
  6
CONTINUOUS
  0
ARC
  8
WHITE
 10
185.849664
 20
725.188722
 30
0.000000
 40
8.514845
 50
114.184906
 51
140.522113
  6
CONTINUOUS
  0
ARC
  8
WHITE
 10
186.186104
 20
724.041452
 30
0.000000
 40
9.700622
 50
89.085785
 51
113.221487
  6
CONTINUOUS
  0
ARC
  8
WHITE
 10
186.249696
 20
723.532336
 30
0.000000
 40
10.208911
 50
61.124944
 51
89.488229
  6
CONTINUOUS
  0
LINE
  8
WHITE
 10
191.179591
 20
732.472022
 30
0.000000
 11
191.179591
 21
727.848367
 31
0.000000
  6
CONTINUOUS
  0
ARC
  8
WHITE
 10
184.504757
 20
720.106463
 30
0.000000
 40
10.222059
 50
49.233083
 51
65.564171
  6
CONTINUOUS
  0
ARC
  8
WHITE
 10
186.314996
 20
724.070898
 30
0.000000
 40
5.863895
 50
65.643355
 51
89.326796
  6
CONTINUOUS
  0
ARC
  8
WHITE
 10
186.332169
 20
724.914395
 30
0.000000
 40
5.020259
 50
89.409679
 51
121.139930
  6
CONTINUOUS
  0
ARC
  8
WHITE
 10
187.038622
 20
723.896788
 30
0.000000
 40
6.257055
 50
121.858066
 51
142.338282
  6
CONTINUOUS
  0
ARC
  8
WHITE
 10
189.866335
 20
721.707007
 30
0.000000
 40
9.833518
 50
142.304644
 51
166.401041
  6
CONTINUOUS
  0
ARC
  8
WHITE
 10
200.935265
 20
718.947374
 30
0.000000
 40
21.241140
 50
166.186082
 51
180.702145
  6
CONTINUOUS
  0
ARC
  8
WHITE
 10
183.895723
 20
712.363272
 30
0.000000
 40
4.601400
 50
-60.010100
 51
-26.332878
  6
CONTINUOUS
  0
ARC
  8
WHITE
 10
182.228533
 20
713.180744
 30
0.000000
 40
6.458212
 50
-26.271695
 51
1.344140
  6
CONTINUOUS
  0
ARC
  8
WHITE
 10
181.846387
 20
713.406630
 30
0.000000
 40
6.838986
 50
-0.623260
 51
16.048649
  6
CONTINUOUS
  0
ARC
  8
WHITE
 10
183.849280
 20
713.996290
 30
0.000000
 40
4.751155
 50
15.892213
 51
47.650733
  6
CONTINUOUS
  0
ARC
  8
WHITE
 10
184.939614
 20
715.095972
 30
0.000000
 40
3.204590
 50
48.813237
 51
91.092458
  6
CONTINUOUS
  0
ARC
  8
WHITE
 10
184.909786
 20
714.264537
 30
0.000000
 40
4.035564
 50
90.443964
 51
132.366395
  6
CONTINUOUS
  0
ARC
  8
WHITE
 10
186.919889
 20
711.874383
 30
0.000000
 40
7.157177
 50
131.361792
 51
145.544841
  6
CONTINUOUS
  0
ARC
  8
WHITE
 10
191.504615
 20
708.688102
 30
0.000000
 40
12.740318
 50
145.394411
 51
155.044518
  6
CONTINUOUS
  0
ARC
  8
WHITE
 10
195.750119
 20
717.156986
 30
0.000000
 40
16.096407
 50
-168.919393
 51
-159.082505
  6
CONTINUOUS
  0
ARC
  8
WHITE
 10
188.624521
 20
714.452970
 30
0.000000
 40
8.475041
 50
-158.959497
 51
-147.647541
  6
CONTINUOUS
  0
ARC
  8
WHITE
 10
185.278814
 20
712.252265
 30
0.000000
 40
4.471554
 50
-148.528102
 51
-122.443247
  6
CONTINUOUS
  0
ARC
  8
WHITE
 10
184.605620
 20
711.341130
 30
0.000000
 40
3.342424
 50
-121.083202
 51
-89.377103
  6
CONTINUOUS
  0
ARC
  8
WHITE
 10
184.668249
 20
711.265306
 30
0.000000
 40
3.266507
 50
-90.461178
 51
-62.120336
  6
CONTINUOUS
  0
ARC
  8
WHITE
 10
1020.084332
 20
595.809546
 30
0.000000
 40
6.257055
 50
121.858066
 51
142.338282
  6
CONTINUOUS
  0
ARC
  8
WHITE
 10
1022.912045
 20
593.619765
 30
0.000000
 40
9.833518
 50
142.304644
 51
166.401041
  6
CONTINUOUS
  0
ARC
  8
WHITE
 10
1033.980975
 20
590.860132
 30
0.000000
 40
21.241140
 50
166.186082
 51
180.702145
  6
CONTINUOUS
  0
ARC
  8
WHITE
 10
1020.713893
 20
584.794582
 30
0.000000
 40
9.862105
 50
121.515825
 51
143.939276
  6
CONTINUOUS
  0
ARC
  8
WHITE
 10
1018.689135
 20
587.935911
 30
0.000000
 40
6.126301
 50
90.114292
 51
120.730031
  6
CONTINUOUS
  0
ARC
  8
WHITE
 10
1018.753910
 20
587.382091
 30
0.000000
 40
6.680552
 50
65.201272
 51
90.660367
  6
CONTINUOUS
  0
ARC
  8
WHITE
 10
1018.666522
 20
587.376454
 30
0.000000
 40
6.722763
 50
45.566708
 51
64.545309
  6
CONTINUOUS
  0
ARC
  8
WHITE
 10
1017.473836
 20
586.105228
 30
0.000000
 40
8.465563
 50
21.565079
 51
45.825937
  6
CONTINUOUS
  0
ARC
  8
WHITE
 10
1015.927367
 20
585.617244
 30
0.000000
 40
10.083793
 50
-0.771005
 51
20.913963
  6
CONTINUOUS
  0
ARC
  8
WHITE
 10
1015.418564
 20
585.371020
 30
0.000000
 40
10.592261
 50
-19.508868
 51
0.597917
  6
CONTINUOUS
  0
ARC
  8
WHITE
 10
1016.528212
 20
585.103962
 30
0.000000
 40
9.457880
 50
-52.366602
 51
-20.228846
  6
CONTINUOUS
  0
ARC
  8
WHITE
 10
1017.815060
 20
583.428440
 30
0.000000
 40
7.345220
 50
-90.658232
 51
-52.335506
  6
CONTINUOUS
  0
ARC
  8
WHITE
 10
1017.710314
 20
583.390759
 30
0.000000
 40
7.307082
 50
-120.949123
 51
-89.840328
  6
CONTINUOUS
  0
ARC
  8
WHITE
 10
1018.379000
 20
584.619675
 30
0.000000
 40
8.705117
 50
-141.841724
 51
-120.563935
  6
CONTINUOUS
  0
ARC
  8
WHITE
 10
1019.495477
 20
585.414375
 30
0.000000
 40
10.074214
 50
-157.076305
 51
-142.210960
  6
CONTINUOUS
  0
ARC
  8
WHITE
 10
1022.983439
 20
586.915256
 30
0.000000
 40
13.871333
 50
-165.909029
 51
-156.978123
  6
CONTINUOUS
  0
ARC
  8
WHITE
 10
1035.114113
 20
590.198344
 30
0.000000
 40
26.437316
 50
179.828986
 51
194.591481
  6
CONTINUOUS
  0
ARC
  8
WHITE
 10
1033.579959
 20
590.502891
 30
0.000000
 40
24.904067
 50
166.542280
 51
180.519122
  6
CONTINUOUS
  0
ARC
  8
WHITE
 10
1026.645066
 20
592.075967
 30
0.000000
 40
17.793693
 50
153.162117
 51
166.271605
  6
CONTINUOUS
  0
ARC
  8
WHITE
 10
1022.148829
 20
594.458464
 30
0.000000
 40
12.706499
 50
140.650255
 51
153.594855
  6
CONTINUOUS
  0
ARC
  8
WHITE
 10
1018.895374
 20
597.101480
 30
0.000000
 40
8.514845
 50
114.184906
 51
140.522113
  6
CONTINUOUS
  0
ARC
  8
WHITE
 10
1019.231815
 20
595.954210
 30
0.000000
 40
9.700622
 50
89.085785
 51
113.221487
  6
CONTINUOUS
  0
ARC
  8
WHITE
 10
1019.295406
 20
595.445094
 30
0.000000
 40
10.208911
 50
61.124944
 51
89.488229
  6
CONTINUOUS
  0
LINE
  8
WHITE
 10
1024.225301
 20
604.384780
 30
0.000000
 11
1024.225301
 21
599.761124
 31
0.000000
  6
CONTINUOUS
  0
ARC
  8
WHITE
 10
1017.550467
 20
592.019221
 30
0.000000
 40
10.222059
 50
49.233083
 51
65.564171
  6
CONTINUOUS
  0
ARC
  8
WHITE
 10
1019.360706
 20
595.983656
 30
0.000000
 40
5.863895
 50
65.643355
 51
89.326796
  6
CONTINUOUS
  0
ARC
  8
WHITE
 10
1019.377880
 20
596.827153
 30
0.000000
 40
5.020259
 50
89.409679
 51
121.139930
  6
CONTINUOUS
  0
ARC
  8
WHITE
 10
1018.324524
 20
584.165023
 30
0.000000
 40
4.471554
 50
-148.528102
 51
-122.443247
  6
CONTINUOUS
  0
ARC
  8
WHITE
 10
1017.651330
 20
583.253888
 30
0.000000
 40
3.342424
 50
-121.083202
 51
-89.377103
  6
CONTINUOUS
  0
ARC
  8
WHITE
 10
1017.713959
 20
583.178063
 30
0.000000
 40
3.266507
 50
-90.461178
 51
-62.120336
  6
CONTINUOUS
  0
ARC
  8
WHITE
 10
1016.941433
 20
584.276029
 30
0.000000
 40
4.601400
 50
-60.010100
 51
-26.332878
  6
CONTINUOUS
  0
ARC
  8
WHITE
 10
1015.274243
 20
585.093502
 30
0.000000
 40
6.458212
 50
-26.271695
 51
1.344140
  6
CONTINUOUS
  0
ARC
  8
WHITE
 10
1014.892097
 20
585.319388
 30
0.000000
 40
6.838986
 50
-0.623260
 51
16.048649
  6
CONTINUOUS
  0
ARC
  8
WHITE
 10
1016.894990
 20
585.909047
 30
0.000000
 40
4.751155
 50
15.892213
 51
47.650733
  6
CONTINUOUS
  0
ARC
  8
WHITE
 10
1017.985324
 20
587.008729
 30
0.000000
 40
3.204590
 50
48.813237
 51
91.092458
  6
CONTINUOUS
  0
ARC
  8
WHITE
 10
1017.955496
 20
586.177295
 30
0.000000
 40
4.035564
 50
90.443964
 51
132.366395
  6
CONTINUOUS
  0
ARC
  8
WHITE
 10
1019.965599
 20
583.787141
 30
0.000000
 40
7.157177
 50
131.361792
 51
145.544841
  6
CONTINUOUS
  0
ARC
  8
WHITE
 10
1024.550325
 20
580.600860
 30
0.000000
 40
12.740318
 50
145.394411
 51
155.044518
  6
CONTINUOUS
  0
ARC
  8
WHITE
 10
1028.795829
 20
589.069744
 30
0.000000
 40
16.096407
 50
-168.919393
 51
-159.082505
  6
CONTINUOUS
  0
ARC
  8
WHITE
 10
1021.670231
 20
586.365728
 30
0.000000
 40
8.475041
 50
-158.959497
 51
-147.647541
  6
CONTINUOUS
  0
ARC
  8
WHITE
 10
680.705583
 20
547.150077
 30
0.000000
 40
8.875655
 50
-58.917451
 51
-34.575112
  6
CONTINUOUS
  0
ARC
  8
WHITE
 10
682.097471
 20
545.073790
 30
0.000000
 40
6.380010
 50
-90.366535
 51
-59.996228
  6
CONTINUOUS
  0
ARC
  8
WHITE
 10
681.995335
 20
544.975360
 30
0.000000
 40
6.281749
 50
-115.640405
 51
-89.440678
  6
CONTINUOUS
  0
ARC
  8
WHITE
 10
682.254802
 20
545.353236
 30
0.000000
 40
6.735059
 50
-134.958623
 51
-116.239330
  6
CONTINUOUS
  0
ARC
  8
WHITE
 10
683.463745
 20
546.654155
 30
0.000000
 40
8.510084
 50
-158.720078
 51
-134.529376
  6
CONTINUOUS
  0
ARC
  8
WHITE
 10
685.183628
 20
547.197960
 30
0.000000
 40
10.310733
 50
179.215829
 51
200.627194
  6
CONTINUOUS
  0
ARC
  8
WHITE
 10
685.645908
 20
547.459646
 30
0.000000
 40
10.772721
 50
160.872213
 51
180.641297
  6
CONTINUOUS
  0
ARC
  8
WHITE
 10
684.086888
 20
547.891856
 30
0.000000
 40
9.158723
 50
127.572493
 51
160.230939
  6
CONTINUOUS
  0
ARC
  8
WHITE
 10
682.926938
 20
549.378026
 30
0.000000
 40
7.273527
 50
89.232251
 51
127.468972
  6
CONTINUOUS
  0
ARC
  8
WHITE
 10
683.115888
 20
549.350436
 30
0.000000
 40
7.301038
 50
60.970332
 51
90.717992
  6
CONTINUOUS
  0
ARC
  8
WHITE
 10
682.561806
 20
548.587840
 30
0.000000
 40
8.237497
 50
39.645061
 51
60.174509
  6
CONTINUOUS
  0
ARC
  8
WHITE
 10
679.367314
 20
545.948049
 30
0.000000
 40
12.381560
 50
15.531450
 51
39.619559
  6
CONTINUOUS
  0
ARC
  8
WHITE
 10
673.283974
 20
544.036935
 30
0.000000
 40
18.755695
 50
7.023274
 51
16.180336
  6
CONTINUOUS
  0
ARC
  8
WHITE
 10
665.553470
 20
543.070427
 30
0.000000
 40
26.546374
 50
-0.209243
 51
7.053550
  6
CONTINUOUS
  0
ARC
  8
WHITE
 10
664.086968
 20
542.883040
 30
0.000000
 40
28.012846
 50
-12.224961
 51
0.184983
  6
CONTINUOUS
  0
ARC
  8
WHITE
 10
673.105218
 20
540.673261
 30
0.000000
 40
18.732842
 50
-24.637543
 51
-11.460144
  6
CONTINUOUS
  0
ARC
  8
WHITE
 10
680.427962
 20
537.320565
 30
0.000000
 40
10.679079
 50
-54.919539
 51
-24.665454
  6
CONTINUOUS
  0
ARC
  8
WHITE
 10
681.792794
 20
535.421070
 30
0.000000
 40
8.340269
 50
-90.403382
 51
-55.092762
  6
CONTINUOUS
  0
ARC
  8
WHITE
 10
681.880794
 20
539.009637
 30
0.000000
 40
11.929532
 50
-115.500899
 51
-90.704681
  6
CONTINUOUS
  0
LINE
  8
WHITE
 10
676.744829
 20
528.242298
 30
0.000000
 11
676.744829
 21
532.822943
 31
0.000000
  6
CONTINUOUS
  0
ARC
  8
WHITE
 10
684.002166
 20
542.478077
 30
0.000000
 40
12.078516
 50
-126.930565
 51
-113.334175
  6
CONTINUOUS
  0
ARC
  8
WHITE
 10
681.511935
 20
536.631567
 30
0.000000
 40
5.723902
 50
-113.626545
 51
-91.220756
  6
CONTINUOUS
  0
ARC
  8
WHITE
 10
681.443540
 20
535.887187
 30
0.000000
 40
4.978510
 50
-90.616295
 51
-58.666428
  6
CONTINUOUS
  0
ARC
  8
WHITE
 10
680.741553
 20
536.885672
 30
0.000000
 40
6.196939
 50
-57.923294
 51
-37.284337
  6
CONTINUOUS
  0
ARC
  8
WHITE
 10
677.796820
 20
539.129228
 30
0.000000
 40
9.898965
 50
-37.291439
 51
-13.430728
  6
CONTINUOUS
  0
ARC
  8
WHITE
 10
667.012594
 20
541.778475
 30
0.000000
 40
21.003720
 50
-13.626990
 51
0.913311
  6
CONTINUOUS
  0
ARC
  8
WHITE
 10
680.869969
 20
548.847472
 30
0.000000
 40
7.032984
 50
-48.093598
 51
-33.647419
  6
CONTINUOUS
  0
ARC
  8
WHITE
 10
676.431025
 20
551.838388
 30
0.000000
 40
12.385486
 50
-33.787557
 51
-23.887700
  6
CONTINUOUS
  0
ARC
  8
WHITE
 10
671.313348
 20
543.292178
 30
0.000000
 40
16.817055
 50
12.119506
 51
21.540692
  6
CONTINUOUS
  0
ARC
  8
WHITE
 10
678.748901
 20
546.208740
 30
0.000000
 40
8.829989
 50
21.652240
 51
32.506290
  6
CONTINUOUS
  0
ARC
  8
WHITE
 10
682.316436
 20
548.569888
 30
0.000000
 40
4.553111
 50
31.574203
 51
56.988317
  6
CONTINUOUS
  0
ARC
  8
WHITE
 10
683.115496
 20
549.670108
 30
0.000000
 40
3.195956
 50
58.254962
 51
90.476537
  6
CONTINUOUS
  0
ARC
  8
WHITE
 10
683.070767
 20
549.674123
 30
0.000000
 40
3.191883
 50
89.674235
 51
118.208296
  6
CONTINUOUS
  0
ARC
  8
WHITE
 10
683.942234
 20
548.394319
 30
0.000000
 40
4.734422
 50
120.181689
 51
153.013587
  6
CONTINUOUS
  0
ARC
  8
WHITE
 10
685.406875
 20
547.682349
 30
0.000000
 40
6.362733
 50
153.285335
 51
181.348419
  6
CONTINUOUS
  0
ARC
  8
WHITE
 10
684.983661
 20
547.391516
 30
0.000000
 40
5.939434
 50
178.638688
 51
214.501640
  6
CONTINUOUS
  0
ARC
  8
WHITE
 10
682.813987
 20
545.786346
 30
0.000000
 40
3.243526
 50
-147.156751
 51
-88.942285
  6
CONTINUOUS
  0
ARC
  8
WHITE
 10
682.846383
 20
546.538119
 30
0.000000
 40
3.994841
 50
-89.605899
 51
-47.067596
  6
CONTINUOUS
  0
ARC
  8
WHITE
 10
1567.729248
 20
865.958321
 30
0.000000
 40
9.158723
 50
127.572493
 51
160.230939
  6
CONTINUOUS
  0
ARC
  8
WHITE
 10
1566.569298
 20
867.444491
 30
0.000000
 40
7.273527
 50
89.232251
 51
127.468972
  6
CONTINUOUS
  0
ARC
  8
WHITE
 10
1566.758248
 20
867.416900
 30
0.000000
 40
7.301038
 50
60.970332
 51
90.717992
  6
CONTINUOUS
  0
ARC
  8
WHITE
 10
1566.204166
 20
866.654304
 30
0.000000
 40
8.237497
 50
39.645061
 51
60.174509
  6
CONTINUOUS
  0
ARC
  8
WHITE
 10
1563.009674
 20
864.014513
 30
0.000000
 40
12.381560
 50
15.531450
 51
39.619559
  6
CONTINUOUS
  0
ARC
  8
WHITE
 10
1556.926334
 20
862.103399
 30
0.000000
 40
18.755695
 50
7.023274
 51
16.180336
  6
CONTINUOUS
  0
ARC
  8
WHITE
 10
1549.195830
 20
861.136891
 30
0.000000
 40
26.546374
 50
-0.209243
 51
7.053550
  6
CONTINUOUS
  0
ARC
  8
WHITE
 10
1547.729328
 20
860.949504
 30
0.000000
 40
28.012846
 50
-12.224961
 51
0.184983
  6
CONTINUOUS
  0
ARC
  8
WHITE
 10
1556.747579
 20
858.739725
 30
0.000000
 40
18.732842
 50
-24.637543
 51
-11.460144
  6
CONTINUOUS
  0
ARC
  8
WHITE
 10
1564.070322
 20
855.387029
 30
0.000000
 40
10.679079
 50
-54.919539
 51
-24.665454
  6
CONTINUOUS
  0
ARC
  8
WHITE
 10
1565.435154
 20
853.487534
 30
0.000000
 40
8.340269
 50
-90.403382
 51
-55.092762
  6
CONTINUOUS
  0
ARC
  8
WHITE
 10
1565.523154
 20
857.076102
 30
0.000000
 40
11.929532
 50
-115.500899
 51
-90.704681
  6
CONTINUOUS
  0
LINE
  8
WHITE
 10
1560.387189
 20
846.308762
 30
0.000000
 11
1560.387189
 21
850.889407
 31
0.000000
  6
CONTINUOUS
  0
ARC
  8
WHITE
 10
1567.644526
 20
860.544541
 30
0.000000
 40
12.078516
 50
-126.930565
 51
-113.334175
  6
CONTINUOUS
  0
ARC
  8
WHITE
 10
1565.154296
 20
854.698031
 30
0.000000
 40
5.723902
 50
-113.626545
 51
-91.220756
  6
CONTINUOUS
  0
ARC
  8
WHITE
 10
1565.085900
 20
853.953651
 30
0.000000
 40
4.978510
 50
-90.616295
 51
-58.666428
  6
CONTINUOUS
  0
ARC
  8
WHITE
 10
1564.383913
 20
854.952136
 30
0.000000
 40
6.196939
 50
-57.923294
 51
-37.284337
  6
CONTINUOUS
  0
ARC
  8
WHITE
 10
1561.439180
 20
857.195692
 30
0.000000
 40
9.898965
 50
-37.291439
 51
-13.430728
  6
CONTINUOUS
  0
ARC
  8
WHITE
 10
1550.654954
 20
859.844939
 30
0.000000
 40
21.003720
 50
-13.626990
 51
0.913311
  6
CONTINUOUS
  0
ARC
  8
WHITE
 10
1564.347943
 20
865.216541
 30
0.000000
 40
8.875655
 50
-58.917451
 51
-34.575112
  6
CONTINUOUS
  0
ARC
  8
WHITE
 10
1565.739831
 20
863.140254
 30
0.000000
 40
6.380010
 50
-90.366535
 51
-59.996228
  6
CONTINUOUS
  0
ARC
  8
WHITE
 10
1565.637695
 20
863.041824
 30
0.000000
 40
6.281749
 50
-115.640405
 51
-89.440678
  6
CONTINUOUS
  0
ARC
  8
WHITE
 10
1565.897162
 20
863.419700
 30
0.000000
 40
6.735059
 50
-134.958623
 51
-116.239330
  6
CONTINUOUS
  0
ARC
  8
WHITE
 10
1567.106105
 20
864.720619
 30
0.000000
 40
8.510084
 50
-158.720078
 51
-134.529376
  6
CONTINUOUS
  0
ARC
  8
WHITE
 10
1568.825988
 20
865.264424
 30
0.000000
 40
10.310733
 50
179.215829
 51
200.627194
  6
CONTINUOUS
  0
ARC
  8
WHITE
 10
1569.288268
 20
865.526110
 30
0.000000
 40
10.772721
 50
160.872213
 51
180.641297
  6
CONTINUOUS
  0
ARC
  8
WHITE
 10
1554.955709
 20
861.358642
 30
0.000000
 40
16.817055
 50
12.119506
 51
21.540692
  6
CONTINUOUS
  0
ARC
  8
WHITE
 10
1562.391262
 20
864.275205
 30
0.000000
 40
8.829989
 50
21.652240
 51
32.506290
  6
CONTINUOUS
  0
ARC
  8
WHITE
 10
1565.958797
 20
866.636352
 30
0.000000
 40
4.553111
 50
31.574203
 51
56.988317
  6
CONTINUOUS
  0
ARC
  8
WHITE
 10
1566.757856
 20
867.736572
 30
0.000000
 40
3.195956
 50
58.254962
 51
90.476537
  6
CONTINUOUS
  0
ARC
  8
WHITE
 10
1566.713127
 20
867.740587
 30
0.000000
 40
3.191883
 50
89.674235
 51
118.208296
  6
CONTINUOUS
  0
ARC
  8
WHITE
 10
1567.584594
 20
866.460783
 30
0.000000
 40
4.734422
 50
120.181689
 51
153.013587
  6
CONTINUOUS
  0
ARC
  8
WHITE
 10
1569.049235
 20
865.748814
 30
0.000000
 40
6.362733
 50
153.285335
 51
181.348419
  6
CONTINUOUS
  0
ARC
  8
WHITE
 10
1568.626021
 20
865.457981
 30
0.000000
 40
5.939434
 50
178.638688
 51
214.501640
  6
CONTINUOUS
  0
ARC
  8
WHITE
 10
1566.456347
 20
863.852810
 30
0.000000
 40
3.243526
 50
-147.156751
 51
-88.942285
  6
CONTINUOUS
  0
ARC
  8
WHITE
 10
1566.488743
 20
864.604584
 30
0.000000
 40
3.994841
 50
-89.605899
 51
-47.067596
  6
CONTINUOUS
  0
ARC
  8
WHITE
 10
1564.512329
 20
866.913936
 30
0.000000
 40
7.032984
 50
-48.093598
 51
-33.647419
  6
CONTINUOUS
  0
ARC
  8
WHITE
 10
1560.073385
 20
869.904852
 30
0.000000
 40
12.385486
 50
-33.787557
 51
-23.887700
  6
CONTINUOUS
  0
ARC
  8
WHITE
 10
2468.323380
 20
686.486929
 30
0.000000
 40
18.755695
 50
7.023274
 51
16.180336
  6
CONTINUOUS
  0
ARC
  8
WHITE
 10
2460.592876
 20
685.520421
 30
0.000000
 40
26.546374
 50
-0.209243
 51
7.053550
  6
CONTINUOUS
  0
ARC
  8
WHITE
 10
2459.126374
 20
685.333033
 30
0.000000
 40
28.012846
 50
-12.224961
 51
0.184983
  6
CONTINUOUS
  0
ARC
  8
WHITE
 10
2468.144624
 20
683.123255
 30
0.000000
 40
18.732842
 50
-24.637543
 51
-11.460144
  6
CONTINUOUS
  0
ARC
  8
WHITE
 10
2475.467368
 20
679.770558
 30
0.000000
 40
10.679079
 50
-54.919539
 51
-24.665454
  6
CONTINUOUS
  0
ARC
  8
WHITE
 10
2476.832200
 20
677.871064
 30
0.000000
 40
8.340269
 50
-90.403382
 51
-55.092762
  6
CONTINUOUS
  0
ARC
  8
WHITE
 10
2476.920200
 20
681.459631
 30
0.000000
 40
11.929532
 50
-115.500899
 51
-90.704681
  6
CONTINUOUS
  0
LINE
  8
WHITE
 10
2471.784235
 20
670.692291
 30
0.000000
 11
2471.784235
 21
675.272937
 31
0.000000
  6
CONTINUOUS
  0
ARC
  8
WHITE
 10
2479.041572
 20
684.928071
 30
0.000000
 40
12.078516
 50
-126.930565
 51
-113.334175
  6
CONTINUOUS
  0
ARC
  8
WHITE
 10
2476.551341
 20
679.081561
 30
0.000000
 40
5.723902
 50
-113.626545
 51
-91.220756
  6
CONTINUOUS
  0
ARC
  8
WHITE
 10
2476.482946
 20
678.337181
 30
0.000000
 40
4.978510
 50
-90.616295
 51
-58.666428
  6
CONTINUOUS
  0
ARC
  8
WHITE
 10
2475.780959
 20
679.335666
 30
0.000000
 40
6.196939
 50
-57.923294
 51
-37.284337
  6
CONTINUOUS
  0
ARC
  8
WHITE
 10
2472.836226
 20
681.579221
 30
0.000000
 40
9.898965
 50
-37.291439
 51
-13.430728
  6
CONTINUOUS
  0
ARC
  8
WHITE
 10
2462.052000
 20
684.228468
 30
0.000000
 40
21.003720
 50
-13.626990
 51
0.913311
  6
CONTINUOUS
  0
ARC
  8
WHITE
 10
2475.744989
 20
689.600071
 30
0.000000
 40
8.875655
 50
-58.917451
 51
-34.575112
  6
CONTINUOUS
  0
ARC
  8
WHITE
 10
2477.136877
 20
687.523784
 30
0.000000
 40
6.380010
 50
-90.366535
 51
-59.996228
  6
CONTINUOUS
  0
ARC
  8
WHITE
 10
2477.034741
 20
687.425354
 30
0.000000
 40
6.281749
 50
-115.640405
 51
-89.440678
  6
CONTINUOUS
  0
ARC
  8
WHITE
 10
2477.294208
 20
687.803230
 30
0.000000
 40
6.735059
 50
-134.958623
 51
-116.239330
  6
CONTINUOUS
  0
ARC
  8
WHITE
 10
2478.503151
 20
689.104148
 30
0.000000
 40
8.510084
 50
-158.720078
 51
-134.529376
  6
CONTINUOUS
  0
ARC
  8
WHITE
 10
2480.223034
 20
689.647954
 30
0.000000
 40
10.310733
 50
179.215829
 51
200.627194
  6
CONTINUOUS
  0
ARC
  8
WHITE
 10
2480.685314
 20
689.909640
 30
0.000000
 40
10.772721
 50
160.872213
 51
180.641297
  6
CONTINUOUS
  0
ARC
  8
WHITE
 10
2479.126294
 20
690.341850
 30
0.000000
 40
9.158723
 50
127.572493
 51
160.230939
  6
CONTINUOUS
  0
ARC
  8
WHITE
 10
2477.966344
 20
691.828020
 30
0.000000
 40
7.273527
 50
89.232251
 51
127.468972
  6
CONTINUOUS
  0
ARC
  8
WHITE
 10
2478.155294
 20
691.800429
 30
0.000000
 40
7.301038
 50
60.970332
 51
90.717992
  6
CONTINUOUS
  0
ARC
  8
WHITE
 10
2477.601212
 20
691.037833
 30
0.000000
 40
8.237497
 50
39.645061
 51
60.174509
  6
CONTINUOUS
  0
ARC
  8
WHITE
 10
2474.406720
 20
688.398042
 30
0.000000
 40
12.381560
 50
15.531450
 51
39.619559
  6
CONTINUOUS
  0
ARC
  8
WHITE
 10
2478.110173
 20
692.124116
 30
0.000000
 40
3.191883
 50
89.674235
 51
118.208296
  6
CONTINUOUS
  0
ARC
  8
WHITE
 10
2478.981640
 20
690.844312
 30
0.000000
 40
4.734422
 50
120.181689
 51
153.013587
  6
CONTINUOUS
  0
ARC
  8
WHITE
 10
2480.446281
 20
690.132343
 30
0.000000
 40
6.362733
 50
153.285335
 51
181.348419
  6
CONTINUOUS
  0
ARC
  8
WHITE
 10
2480.023067
 20
689.841510
 30
0.000000
 40
5.939434
 50
178.638688
 51
214.501640
  6
CONTINUOUS
  0
ARC
  8
WHITE
 10
2477.853393
 20
688.236340
 30
0.000000
 40
3.243526
 50
-147.156751
 51
-88.942285
  6
CONTINUOUS
  0
ARC
  8
WHITE
 10
2477.885789
 20
688.988113
 30
0.000000
 40
3.994841
 50
-89.605899
 51
-47.067596
  6
CONTINUOUS
  0
ARC
  8
WHITE
 10
2475.909375
 20
691.297466
 30
0.000000
 40
7.032984
 50
-48.093598
 51
-33.647419
  6
CONTINUOUS
  0
ARC
  8
WHITE
 10
2471.470431
 20
694.288381
 30
0.000000
 40
12.385486
 50
-33.787557
 51
-23.887700
  6
CONTINUOUS
  0
ARC
  8
WHITE
 10
2466.352754
 20
685.742172
 30
0.000000
 40
16.817055
 50
12.119506
 51
21.540692
  6
CONTINUOUS
  0
ARC
  8
WHITE
 10
2473.788307
 20
688.658734
 30
0.000000
 40
8.829989
 50
21.652240
 51
32.506290
  6
CONTINUOUS
  0
ARC
  8
WHITE
 10
2477.355842
 20
691.019881
 30
0.000000
 40
4.553111
 50
31.574203
 51
56.988317
  6
CONTINUOUS
  0
ARC
  8
WHITE
 10
2478.154902
 20
692.120101
 30
0.000000
 40
3.195956
 50
58.254962
 51
90.476537
  6
CONTINUOUS
  0
LINE
  8
WHITE
 10
48.569516
 20
902.127441
 30
0.000000
 11
48.569516
 21
893.912388
 31
0.000000
  6
CONTINUOUS
  0
LINE
  8
WHITE
 10
48.569516
 20
893.912388
 30
0.000000
 11
44.483495
 21
893.912388
 31
0.000000
  6
CONTINUOUS
  0
LINE
  8
WHITE
 10
44.483495
 20
893.912388
 30
0.000000
 11
44.483495
 21
902.127441
 31
0.000000
  6
CONTINUOUS
  0
LINE
  8
WHITE
 10
44.483495
 20
902.127441
 30
0.000000
 11
33.558764
 21
902.127441
 31
0.000000
  6
CONTINUOUS
  0
LINE
  8
WHITE
 10
33.558764
 20
902.127441
 30
0.000000
 11
33.558764
 21
905.869377
 31
0.000000
  6
CONTINUOUS
  0
LINE
  8
WHITE
 10
33.558764
 20
905.869377
 30
0.000000
 11
44.483495
 21
922.622065
 31
0.000000
  6
CONTINUOUS
  0
LINE
  8
WHITE
 10
44.483495
 20
922.622065
 30
0.000000
 11
48.569516
 21
922.622065
 31
0.000000
  6
CONTINUOUS
  0
LINE
  8
WHITE
 10
48.569516
 20
922.622065
 30
0.000000
 11
48.569516
 21
905.869377
 31
0.000000
  6
CONTINUOUS
  0
LINE
  8
WHITE
 10
48.569516
 20
905.869377
 30
0.000000
 11
52.268441
 21
905.869377
 31
0.000000
  6
CONTINUOUS
  0
LINE
  8
WHITE
 10
52.268441
 20
905.869377
 30
0.000000
 11
52.268441
 21
902.127441
 31
0.000000
  6
CONTINUOUS
  0
LINE
  8
WHITE
 10
52.268441
 20
902.127441
 30
0.000000
 11
48.569516
 21
902.127441
 31
0.000000
  6
CONTINUOUS
  0
LINE
  8
WHITE
 10
44.483495
 20
916.385506
 30
0.000000
 11
37.537258
 21
905.869377
 31
0.000000
  6
CONTINUOUS
  0
LINE
  8
WHITE
 10
37.537258
 20
905.869377
 30
0.000000
 11
44.483495
 21
905.869377
 31
0.000000
  6
CONTINUOUS
  0
LINE
  8
WHITE
 10
44.483495
 20
905.869377
 30
0.000000
 11
44.483495
 21
916.385506
 31
0.000000
  6
CONTINUOUS
  0
LINE
  8
WHITE
 10
202.279744
 20
1175.493671
 30
0.000000
 11
206.365766
 21
1175.493671
 31
0.000000
  6
CONTINUOUS
  0
LINE
  8
WHITE
 10
206.365766
 20
1175.493671
 30
0.000000
 11
206.365766
 21
1158.740983
 31
0.000000
  6
CONTINUOUS
  0
LINE
  8
WHITE
 10
206.365766
 20
1158.740983
 30
0.000000
 11
210.064691
 21
1158.740983
 31
0.000000
  6
CONTINUOUS
  0
LINE
  8
WHITE
 10
210.064691
 20
1158.740983
 30
0.000000
 11
210.064691
 21
1154.999047
 31
0.000000
  6
CONTINUOUS
  0
LINE
  8
WHITE
 10
210.064691
 20
1154.999047
 30
0.000000
 11
206.365766
 21
1154.999047
 31
0.000000
  6
CONTINUOUS
  0
LINE
  8
WHITE
 10
206.365766
 20
1154.999047
 30
0.000000
 11
206.365766
 21
1146.783994
 31
0.000000
  6
CONTINUOUS
  0
LINE
  8
WHITE
 10
206.365766
 20
1146.783994
 30
0.000000
 11
202.279744
 21
1146.783994
 31
0.000000
  6
CONTINUOUS
  0
LINE
  8
WHITE
 10
202.279744
 20
1146.783994
 30
0.000000
 11
202.279744
 21
1154.999047
 31
0.000000
  6
CONTINUOUS
  0
LINE
  8
WHITE
 10
202.279744
 20
1154.999047
 30
0.000000
 11
191.355013
 21
1154.999047
 31
0.000000
  6
CONTINUOUS
  0
LINE
  8
WHITE
 10
191.355013
 20
1154.999047
 30
0.000000
 11
191.355013
 21
1158.740983
 31
0.000000
  6
CONTINUOUS
  0
LINE
  8
WHITE
 10
191.355013
 20
1158.740983
 30
0.000000
 11
202.279744
 21
1175.493671
 31
0.000000
  6
CONTINUOUS
  0
LINE
  8
WHITE
 10
202.279744
 20
1158.740983
 30
0.000000
 11
202.279744
 21
1169.257112
 31
0.000000
  6
CONTINUOUS
  0
LINE
  8
WHITE
 10
202.279744
 20
1169.257112
 30
0.000000
 11
195.333508
 21
1158.740983
 31
0.000000
  6
CONTINUOUS
  0
LINE
  8
WHITE
 10
195.333508
 20
1158.740983
 30
0.000000
 11
202.279744
 21
1158.740983
 31
0.000000
  6
CONTINUOUS
  0
LINE
  8
WHITE
 10
620.658133
 20
22.770158
 30
0.000000
 11
620.658133
 21
6.017469
 31
0.000000
  6
CONTINUOUS
  0
LINE
  8
WHITE
 10
620.658133
 20
6.017469
 30
0.000000
 11
624.357058
 21
6.017469
 31
0.000000
  6
CONTINUOUS
  0
LINE
  8
WHITE
 10
624.357058
 20
6.017469
 30
0.000000
 11
624.357058
 21
2.275534
 31
0.000000
  6
CONTINUOUS
  0
LINE
  8
WHITE
 10
624.357058
 20
2.275534
 30
0.000000
 11
620.658133
 21
2.275534
 31
0.000000
  6
CONTINUOUS
  0
LINE
  8
WHITE
 10
620.658133
 20
2.275534
 30
0.000000
 11
620.658133
 21
-5.939520
 31
0.000000
  6
CONTINUOUS
  0
LINE
  8
WHITE
 10
620.658133
 20
-5.939520
 30
0.000000
 11
616.572112
 21
-5.939520
 31
0.000000
  6
CONTINUOUS
  0
LINE
  8
WHITE
 10
616.572112
 20
-5.939520
 30
0.000000
 11
616.572112
 21
2.275534
 31
0.000000
  6
CONTINUOUS
  0
LINE
  8
WHITE
 10
616.572112
 20
2.275534
 30
0.000000
 11
605.647380
 21
2.275534
 31
0.000000
  6
CONTINUOUS
  0
LINE
  8
WHITE
 10
605.647380
 20
2.275534
 30
0.000000
 11
605.647380
 21
6.017469
 31
0.000000
  6
CONTINUOUS
  0
LINE
  8
WHITE
 10
605.647380
 20
6.017469
 30
0.000000
 11
616.572112
 21
22.770158
 31
0.000000
  6
CONTINUOUS
  0
LINE
  8
WHITE
 10
616.572112
 20
22.770158
 30
0.000000
 11
620.658133
 21
22.770158
 31
0.000000
  6
CONTINUOUS
  0
LINE
  8
WHITE
 10
616.572112
 20
16.533599
 30
0.000000
 11
609.625875
 21
6.017469
 31
0.000000
  6
CONTINUOUS
  0
LINE
  8
WHITE
 10
609.625875
 20
6.017469
 30
0.000000
 11
616.572112
 21
6.017469
 31
0.000000
  6
CONTINUOUS
  0
LINE
  8
WHITE
 10
616.572112
 20
6.017469
 30
0.000000
 11
616.572112
 21
16.533599
 31
0.000000
  6
CONTINUOUS
  0
LINE
  8
WHITE
 10
1512.448134
 20
215.322702
 30
0.000000
 11
1512.448134
 21
198.570014
 31
0.000000
  6
CONTINUOUS
  0
LINE
  8
WHITE
 10
1512.448134
 20
198.570014
 30
0.000000
 11
1516.147059
 21
198.570014
 31
0.000000
  6
CONTINUOUS
  0
LINE
  8
WHITE
 10
1516.147059
 20
198.570014
 30
0.000000
 11
1516.147059
 21
194.828078
 31
0.000000
  6
CONTINUOUS
  0
LINE
  8
WHITE
 10
1516.147059
 20
194.828078
 30
0.000000
 11
1512.448134
 21
194.828078
 31
0.000000
  6
CONTINUOUS
  0
LINE
  8
WHITE
 10
1512.448134
 20
194.828078
 30
0.000000
 11
1512.448134
 21
186.613025
 31
0.000000
  6
CONTINUOUS
  0
LINE
  8
WHITE
 10
1512.448134
 20
186.613025
 30
0.000000
 11
1508.362113
 21
186.613025
 31
0.000000
  6
CONTINUOUS
  0
LINE
  8
WHITE
 10
1508.362113
 20
186.613025
 30
0.000000
 11
1508.362113
 21
194.828078
 31
0.000000
  6
CONTINUOUS
  0
LINE
  8
WHITE
 10
1508.362113
 20
194.828078
 30
0.000000
 11
1497.437381
 21
194.828078
 31
0.000000
  6
CONTINUOUS
  0
LINE
  8
WHITE
 10
1497.437381
 20
194.828078
 30
0.000000
 11
1497.437381
 21
198.570014
 31
0.000000
  6
CONTINUOUS
  0
LINE
  8
WHITE
 10
1497.437381
 20
198.570014
 30
0.000000
 11
1508.362113
 21
215.322702
 31
0.000000
  6
CONTINUOUS
  0
LINE
  8
WHITE
 10
1508.362113
 20
215.322702
 30
0.000000
 11
1512.448134
 21
215.322702
 31
0.000000
  6
CONTINUOUS
  0
LINE
  8
WHITE
 10
1508.362113
 20
209.086143
 30
0.000000
 11
1501.415876
 21
198.570014
 31
0.000000
  6
CONTINUOUS
  0
LINE
  8
WHITE
 10
1501.415876
 20
198.570014
 30
0.000000
 11
1508.362113
 21
198.570014
 31
0.000000
  6
CONTINUOUS
  0
LINE
  8
WHITE
 10
1508.362113
 20
198.570014
 30
0.000000
 11
1508.362113
 21
209.086143
 31
0.000000
  6
CONTINUOUS
  0
ARC
  8
WHITE
 10
-13.903371
 20
1105.404809
 30
0.000000
 40
4.248269
 50
54.262191
 51
91.557360
  6
CONTINUOUS
  0
ARC
  8
WHITE
 10
-14.082811
 20
1105.485441
 30
0.000000
 40
4.166559
 50
89.120132
 51
132.553219
  6
CONTINUOUS
  0
LINE
  8
WHITE
 10
-16.900549
 20
1108.554734
 30
0.000000
 11
-20.728506
 21
1108.554734
 31
0.000000
  6
CONTINUOUS
  0
LINE
  8
WHITE
 10
-20.728506
 20
1108.554734
 30
0.000000
 11
-20.728506
 21
1124.017100
 31
0.000000
  6
CONTINUOUS
  0
LINE
  8
WHITE
 10
-20.728506
 20
1124.017100
 30
0.000000
 11
-7.008076
 21
1124.017100
 31
0.000000
  6
CONTINUOUS
  0
LINE
  8
WHITE
 10
-7.008076
 20
1124.017100
 30
0.000000
 11
-7.008076
 21
1120.103122
 31
0.000000
  6
CONTINUOUS
  0
LINE
  8
WHITE
 10
-7.008076
 20
1120.103122
 30
0.000000
 11
-16.685496
 21
1120.103122
 31
0.000000
  6
CONTINUOUS
  0
LINE
  8
WHITE
 10
-16.685496
 20
1120.103122
 30
0.000000
 11
-16.685496
 21
1111.995595
 31
0.000000
  6
CONTINUOUS
  0
ARC
  8
WHITE
 10
-11.150776
 20
1104.349382
 30
0.000000
 40
9.439157
 50
111.079626
 51
125.898943
  6
CONTINUOUS
  0
ARC
  8
WHITE
 10
-12.467194
 20
1107.776064
 30
0.000000
 40
5.768316
 50
90.673108
 51
111.120673
  6
CONTINUOUS
  0
ARC
  8
WHITE
 10
-12.431787
 20
1106.793818
 30
0.000000
 40
6.750952
 50
64.892305
 51
90.875653
  6
CONTINUOUS
  0
ARC
  8
WHITE
 10
-12.332318
 20
1107.220831
 30
0.000000
 40
6.322737
 50
43.747331
 51
64.066563
  6
CONTINUOUS
  0
ARC
  8
WHITE
 10
-14.336015
 20
1105.376148
 30
0.000000
 40
9.045915
 50
20.760483
 51
43.412115
  6
CONTINUOUS
  0
ARC
  8
WHITE
 10
-15.432386
 20
1105.046432
 30
0.000000
 40
10.188288
 50
-0.588250
 51
20.308817
  6
CONTINUOUS
  0
ARC
  8
WHITE
 10
-16.013740
 20
1104.814838
 30
0.000000
 40
10.769853
 50
-20.846871
 51
0.675620
  6
CONTINUOUS
  0
ARC
  8
WHITE
 10
-15.189719
 20
1104.695751
 30
0.000000
 40
9.959060
 50
-55.459339
 51
-21.893736
  6
CONTINUOUS
  0
ARC
  8
WHITE
 10
-14.721618
 20
1103.982209
 30
0.000000
 40
9.105908
 50
-90.855267
 51
-55.339879
  6
CONTINUOUS
  0
ARC
  8
WHITE
 10
-14.753484
 20
1105.512933
 30
0.000000
 40
10.636127
 50
-105.730690
 51
-90.560544
  6
CONTINUOUS
  0
ARC
  8
WHITE
 10
-12.930663
 20
1112.065556
 30
0.000000
 40
17.437542
 50
-116.563352
 51
-105.658497
  6
CONTINUOUS
  0
LINE
  8
WHITE
 10
-20.728506
 20
1096.468713
 30
0.000000
 11
-20.728506
 21
1101.178390
 31
0.000000
  6
CONTINUOUS
  0
ARC
  8
WHITE
 10
-11.095345
 20
1113.732568
 30
0.000000
 40
15.824196
 50
-127.500006
 51
-114.696993
  6
CONTINUOUS
  0
ARC
  8
WHITE
 10
-14.985685
 20
1105.115775
 30
0.000000
 40
6.370460
 50
-115.288558
 51
-91.749010
  6
CONTINUOUS
  0
ARC
  8
WHITE
 10
-15.139467
 20
1104.185868
 30
0.000000
 40
5.437737
 50
-90.428345
 51
-43.435672
  6
CONTINUOUS
  0
ARC
  8
WHITE
 10
-15.182620
 20
1104.469518
 30
0.000000
 40
5.666836
 50
-45.218504
 51
-21.900518
  6
CONTINUOUS
  0
ARC
  8
WHITE
 10
-15.736881
 20
1104.611747
 30
0.000000
 40
6.234597
 50
-21.213342
 51
0.661877
  6
CONTINUOUS
  0
ARC
  8
WHITE
 10
-15.352507
 20
1104.749805
 30
0.000000
 40
5.850180
 50
-0.646784
 51
18.802713
  6
CONTINUOUS
  0
ARC
  8
WHITE
 10
-14.302461
 20
1105.073786
 30
0.000000
 40
4.751854
 50
19.185540
 51
52.687302
  6
CONTINUOUS
  0
LINE
  8
WHITE
 10
68.512294
 20
772.193633
 30
0.000000
 11
82.232724
 21
772.193633
 31
0.000000
  6
CONTINUOUS
  0
LINE
  8
WHITE
 10
82.232724
 20
772.193633
 30
0.000000
 11
82.232724
 21
768.279654
 31
0.000000
  6
CONTINUOUS
  0
LINE
  8
WHITE
 10
82.232724
 20
768.279654
 30
0.000000
 11
72.555305
 21
768.279654
 31
0.000000
  6
CONTINUOUS
  0
LINE
  8
WHITE
 10
72.555305
 20
768.279654
 30
0.000000
 11
72.555305
 21
760.172127
 31
0.000000
  6
CONTINUOUS
  0
ARC
  8
WHITE
 10
78.090025
 20
752.525915
 30
0.000000
 40
9.439157
 50
111.079626
 51
125.898943
  6
CONTINUOUS
  0
ARC
  8
WHITE
 10
76.773607
 20
755.952596
 30
0.000000
 40
5.768316
 50
90.673108
 51
111.120673
  6
CONTINUOUS
  0
ARC
  8
WHITE
 10
76.809013
 20
754.970351
 30
0.000000
 40
6.750952
 50
64.892305
 51
90.875653
  6
CONTINUOUS
  0
ARC
  8
WHITE
 10
76.908483
 20
755.397363
 30
0.000000
 40
6.322737
 50
43.747331
 51
64.066563
  6
CONTINUOUS
  0
ARC
  8
WHITE
 10
74.904785
 20
753.552680
 30
0.000000
 40
9.045915
 50
20.760483
 51
43.412115
  6
CONTINUOUS
  0
ARC
  8
WHITE
 10
73.808414
 20
753.222964
 30
0.000000
 40
10.188288
 50
-0.588250
 51
20.308817
  6
CONTINUOUS
  0
ARC
  8
WHITE
 10
73.227061
 20
752.991371
 30
0.000000
 40
10.769853
 50
-20.846871
 51
0.675620
  6
CONTINUOUS
  0
ARC
  8
WHITE
 10
74.051081
 20
752.872284
 30
0.000000
 40
9.959060
 50
-55.459339
 51
-21.893736
  6
CONTINUOUS
  0
ARC
  8
WHITE
 10
74.519183
 20
752.158742
 30
0.000000
 40
9.105908
 50
-90.855267
 51
-55.339879
  6
CONTINUOUS
  0
ARC
  8
WHITE
 10
74.487317
 20
753.689466
 30
0.000000
 40
10.636127
 50
-105.730690
 51
-90.560544
  6
CONTINUOUS
  0
ARC
  8
WHITE
 10
76.310137
 20
760.242088
 30
0.000000
 40
17.437542
 50
-116.563352
 51
-105.658497
  6
CONTINUOUS
  0
LINE
  8
WHITE
 10
68.512294
 20
744.645246
 30
0.000000
 11
68.512294
 21
749.354923
 31
0.000000
  6
CONTINUOUS
  0
ARC
  8
WHITE
 10
78.145455
 20
761.909100
 30
0.000000
 40
15.824196
 50
-127.500006
 51
-114.696993
  6
CONTINUOUS
  0
ARC
  8
WHITE
 10
74.255116
 20
753.292308
 30
0.000000
 40
6.370460
 50
-115.288558
 51
-91.749010
  6
CONTINUOUS
  0
ARC
  8
WHITE
 10
74.101333
 20
752.362400
 30
0.000000
 40
5.437737
 50
-90.428345
 51
-43.435672
  6
CONTINUOUS
  0
ARC
  8
WHITE
 10
74.058181
 20
752.646050
 30
0.000000
 40
5.666836
 50
-45.218504
 51
-21.900518
  6
CONTINUOUS
  0
ARC
  8
WHITE
 10
73.503919
 20
752.788279
 30
0.000000
 40
6.234597
 50
-21.213342
 51
0.661877
  6
CONTINUOUS
  0
ARC
  8
WHITE
 10
73.888293
 20
752.926338
 30
0.000000
 40
5.850180
 50
-0.646784
 51
18.802713
  6
CONTINUOUS
  0
ARC
  8
WHITE
 10
74.938339
 20
753.250318
 30
0.000000
 40
4.751854
 50
19.185540
 51
52.687302
  6
CONTINUOUS
  0
ARC
  8
WHITE
 10
75.337430
 20
753.581342
 30
0.000000
 40
4.248269
 50
54.262191
 51
91.557360
  6
CONTINUOUS
  0
ARC
  8
WHITE
 10
75.157990
 20
753.661973
 30
0.000000
 40
4.166559
 50
89.120132
 51
132.553219
  6
CONTINUOUS
  0
LINE
  8
WHITE
 10
72.340251
 20
756.731267
 30
0.000000
 11
68.512294
 21
756.731267
 31
0.000000
  6
CONTINUOUS
  0
LINE
  8
WHITE
 10
68.512294
 20
756.731267
 30
0.000000
 11
68.512294
 21
772.193633
 31
0.000000
  6
CONTINUOUS
  0
ARC
  8
WHITE
 10
1886.469360
 20
533.372125
 30
0.000000
 40
6.370460
 50
-115.288558
 51
-91.749010
  6
CONTINUOUS
  0
ARC
  8
WHITE
 10
1886.315578
 20
532.442218
 30
0.000000
 40
5.437737
 50
-90.428345
 51
-43.435672
  6
CONTINUOUS
  0
ARC
  8
WHITE
 10
1886.272425
 20
532.725868
 30
0.000000
 40
5.666836
 50
-45.218504
 51
-21.900518
  6
CONTINUOUS
  0
ARC
  8
WHITE
 10
1885.718164
 20
532.868096
 30
0.000000
 40
6.234597
 50
-21.213342
 51
0.661877
  6
CONTINUOUS
  0
ARC
  8
WHITE
 10
1886.102538
 20
533.006155
 30
0.000000
 40
5.850180
 50
-0.646784
 51
18.802713
  6
CONTINUOUS
  0
ARC
  8
WHITE
 10
1887.152584
 20
533.330136
 30
0.000000
 40
4.751854
 50
19.185540
 51
52.687302
  6
CONTINUOUS
  0
ARC
  8
WHITE
 10
1887.551674
 20
533.661159
 30
0.000000
 40
4.248269
 50
54.262191
 51
91.557360
  6
CONTINUOUS
  0
ARC
  8
WHITE
 10
1887.372234
 20
533.741790
 30
0.000000
 40
4.166559
 50
89.120132
 51
132.553219
  6
CONTINUOUS
  0
LINE
  8
WHITE
 10
1884.554495
 20
536.811084
 30
0.000000
 11
1880.726538
 21
536.811084
 31
0.000000
  6
CONTINUOUS
  0
LINE
  8
WHITE
 10
1880.726538
 20
536.811084
 30
0.000000
 11
1880.726538
 21
552.273450
 31
0.000000
  6
CONTINUOUS
  0
LINE
  8
WHITE
 10
1880.726538
 20
552.273450
 30
0.000000
 11
1894.446968
 21
552.273450
 31
0.000000
  6
CONTINUOUS
  0
LINE
  8
WHITE
 10
1894.446968
 20
552.273450
 30
0.000000
 11
1894.446968
 21
548.359471
 31
0.000000
  6
CONTINUOUS
  0
LINE
  8
WHITE
 10
1894.446968
 20
548.359471
 30
0.000000
 11
1884.769549
 21
548.359471
 31
0.000000
  6
CONTINUOUS
  0
LINE
  8
WHITE
 10
1884.769549
 20
548.359471
 30
0.000000
 11
1884.769549
 21
540.251944
 31
0.000000
  6
CONTINUOUS
  0
ARC
  8
WHITE
 10
1890.304269
 20
532.605732
 30
0.000000
 40
9.439157
 50
111.079626
 51
125.898943
  6
CONTINUOUS
  0
ARC
  8
WHITE
 10
1888.987851
 20
536.032413
 30
0.000000
 40
5.768316
 50
90.673108
 51
111.120673
  6
CONTINUOUS
  0
ARC
  8
WHITE
 10
1889.023258
 20
535.050168
 30
0.000000
 40
6.750952
 50
64.892305
 51
90.875653
  6
CONTINUOUS
  0
ARC
  8
WHITE
 10
1889.122727
 20
535.477180
 30
0.000000
 40
6.322737
 50
43.747331
 51
64.066563
  6
CONTINUOUS
  0
ARC
  8
WHITE
 10
1887.119029
 20
533.632498
 30
0.000000
 40
9.045915
 50
20.760483
 51
43.412115
  6
CONTINUOUS
  0
ARC
  8
WHITE
 10
1886.022658
 20
533.302781
 30
0.000000
 40
10.188288
 50
-0.588250
 51
20.308817
  6
CONTINUOUS
  0
ARC
  8
WHITE
 10
1885.441305
 20
533.071188
 30
0.000000
 40
10.769853
 50
-20.846871
 51
0.675620
  6
CONTINUOUS
  0
ARC
  8
WHITE
 10
1886.265326
 20
532.952101
 30
0.000000
 40
9.959060
 50
-55.459339
 51
-21.893736
  6
CONTINUOUS
  0
ARC
  8
WHITE
 10
1886.733427
 20
532.238559
 30
0.000000
 40
9.105908
 50
-90.855267
 51
-55.339879
  6
CONTINUOUS
  0
ARC
  8
WHITE
 10
1886.701561
 20
533.769283
 30
0.000000
 40
10.636127
 50
-105.730690
 51
-90.560544
  6
CONTINUOUS
  0
ARC
  8
WHITE
 10
1888.524381
 20
540.321905
 30
0.000000
 40
17.437542
 50
-116.563352
 51
-105.658497
  6
CONTINUOUS
  0
LINE
  8
WHITE
 10
1880.726538
 20
524.725063
 30
0.000000
 11
1880.726538
 21
529.434740
 31
0.000000
  6
CONTINUOUS
  0
ARC
  8
WHITE
 10
1890.359699
 20
541.988918
 30
0.000000
 40
15.824196
 50
-127.500006
 51
-114.696993
  6
CONTINUOUS
  0
ARC
  8
WHITE
 10
2477.376519
 20
203.081072
 30
0.000000
 40
6.370460
 50
-115.288558
 51
-91.749010
  6
CONTINUOUS
  0
ARC
  8
WHITE
 10
2477.222736
 20
202.151165
 30
0.000000
 40
5.437737
 50
-90.428345
 51
-43.435672
  6
CONTINUOUS
  0
ARC
  8
WHITE
 10
2477.179584
 20
202.434815
 30
0.000000
 40
5.666836
 50
-45.218504
 51
-21.900518
  6
CONTINUOUS
  0
ARC
  8
WHITE
 10
2476.625322
 20
202.577044
 30
0.000000
 40
6.234597
 50
-21.213342
 51
0.661877
  6
CONTINUOUS
  0
ARC
  8
WHITE
 10
2477.009696
 20
202.715102
 30
0.000000
 40
5.850180
 50
-0.646784
 51
18.802713
  6
CONTINUOUS
  0
ARC
  8
WHITE
 10
2478.059742
 20
203.039083
 30
0.000000
 40
4.751854
 50
19.185540
 51
52.687302
  6
CONTINUOUS
  0
ARC
  8
WHITE
 10
2478.458833
 20
203.370106
 30
0.000000
 40
4.248269
 50
54.262191
 51
91.557360
  6
CONTINUOUS
  0
ARC
  8
WHITE
 10
2478.279393
 20
203.450737
 30
0.000000
 40
4.166559
 50
89.120132
 51
132.553219
  6
CONTINUOUS
  0
LINE
  8
WHITE
 10
2475.461654
 20
206.520031
 30
0.000000
 11
2471.633697
 21
206.520031
 31
0.000000
  6
CONTINUOUS
  0
LINE
  8
WHITE
 10
2471.633697
 20
206.520031
 30
0.000000
 11
2471.633697
 21
221.982397
 31
0.000000
  6
CONTINUOUS
  0
LINE
  8
WHITE
 10
2471.633697
 20
221.982397
 30
0.000000
 11
2485.354127
 21
221.982397
 31
0.000000
  6
CONTINUOUS
  0
LINE
  8
WHITE
 10
2485.354127
 20
221.982397
 30
0.000000
 11
2485.354127
 21
218.068418
 31
0.000000
  6
CONTINUOUS
  0
LINE
  8
WHITE
 10
2485.354127
 20
218.068418
 30
0.000000
 11
2475.676708
 21
218.068418
 31
0.000000
  6
CONTINUOUS
  0
LINE
  8
WHITE
 10
2475.676708
 20
218.068418
 30
0.000000
 11
2475.676708
 21
209.960892
 31
0.000000
  6
CONTINUOUS
  0
ARC
  8
WHITE
 10
2481.211428
 20
202.314679
 30
0.000000
 40
9.439157
 50
111.079626
 51
125.898943
  6
CONTINUOUS
  0
ARC
  8
WHITE
 10
2479.895010
 20
205.741361
 30
0.000000
 40
5.768316
 50
90.673108
 51
111.120673
  6
CONTINUOUS
  0
ARC
  8
WHITE
 10
2479.930416
 20
204.759115
 30
0.000000
 40
6.750952
 50
64.892305
 51
90.875653
  6
CONTINUOUS
  0
ARC
  8
WHITE
 10
2480.029886
 20
205.186128
 30
0.000000
 40
6.322737
 50
43.747331
 51
64.066563
  6
CONTINUOUS
  0
ARC
  8
WHITE
 10
2478.026188
 20
203.341445
 30
0.000000
 40
9.045915
 50
20.760483
 51
43.412115
  6
CONTINUOUS
  0
ARC
  8
WHITE
 10
2476.929817
 20
203.011728
 30
0.000000
 40
10.188288
 50
-0.588250
 51
20.308817
  6
CONTINUOUS
  0
ARC
  8
WHITE
 10
2476.348464
 20
202.780135
 30
0.000000
 40
10.769853
 50
-20.846871
 51
0.675620
  6
CONTINUOUS
  0
ARC
  8
WHITE
 10
2477.172484
 20
202.661048
 30
0.000000
 40
9.959060
 50
-55.459339
 51
-21.893736
  6
CONTINUOUS
  0
ARC
  8
WHITE
 10
2477.640586
 20
201.947506
 30
0.000000
 40
9.105908
 50
-90.855267
 51
-55.339879
  6
CONTINUOUS
  0
ARC
  8
WHITE
 10
2477.608720
 20
203.478230
 30
0.000000
 40
10.636127
 50
-105.730690
 51
-90.560544
  6
CONTINUOUS
  0
ARC
  8
WHITE
 10
2479.431540
 20
210.030852
 30
0.000000
 40
17.437542
 50
-116.563352
 51
-105.658497
  6
CONTINUOUS
  0
LINE
  8
WHITE
 10
2471.633697
 20
194.434010
 30
0.000000
 11
2471.633697
 21
199.143687
 31
0.000000
  6
CONTINUOUS
  0
ARC
  8
WHITE
 10
2481.266858
 20
211.697865
 30
0.000000
 40
15.824196
 50
-127.500006
 51
-114.696993
  6
CONTINUOUS
  0
ARC
  8
WHITE
 10
155.542064
 20
557.211754
 30
0.000000
 40
15.550067
 50
106.174468
 51
119.760919
  6
CONTINUOUS
  0
ARC
  8
WHITE
 10
154.606961
 20
560.331354
 30
0.000000
 40
12.293497
 50
90.144396
 51
106.038919
  6
CONTINUOUS
  0
ARC
  8
WHITE
 10
154.681984
 20
563.254834
 30
0.000000
 40
9.370577
 50
70.883784
 51
90.648172
  6
CONTINUOUS
  0
ARC
  8
WHITE
 10
155.174343
 20
564.842015
 30
0.000000
 40
7.709872
 50
36.629474
 51
70.478245
  6
CONTINUOUS
  0
ARC
  8
WHITE
 10
155.990365
 20
565.584924
 30
0.000000
 40
6.612662
 50
16.310272
 51
35.682195
  6
CONTINUOUS
  0
ARC
  8
WHITE
 10
154.293498
 20
565.130892
 30
0.000000
 40
8.368848
 50
-0.520139
 51
16.031035
  6
CONTINUOUS
  0
ARC
  8
WHITE
 10
154.547755
 20
564.979147
 30
0.000000
 40
8.114599
 50
-16.687663
 51
0.535022
  6
CONTINUOUS
  0
ARC
  8
WHITE
 10
156.032569
 20
564.577603
 30
0.000000
 40
6.577146
 50
-31.898526
 51
-17.051258
  6
CONTINUOUS
  0
ARC
  8
WHITE
 10
154.591507
 20
565.588497
 30
0.000000
 40
8.335322
 50
-41.756089
 51
-32.563611
  6
CONTINUOUS
  0
ARC
  8
WHITE
 10
143.178894
 20
575.741318
 30
0.000000
 40
23.610376
 50
-48.270029
 51
-41.691814
  6
CONTINUOUS
  0
ARC
  8
WHITE
 10
120.080679
 20
601.268878
 30
0.000000
 40
58.036516
 50
-51.634094
 51
-48.026878
  6
CONTINUOUS
  0
ARC
  8
WHITE
 10
183.739724
 20
520.344656
 30
0.000000
 40
44.926255
 50
127.963592
 51
133.173545
  6
CONTINUOUS
  0
ARC
  8
WHITE
 10
161.412399
 20
544.055626
 30
0.000000
 40
12.357764
 50
132.896838
 51
142.146363
  6
CONTINUOUS
  0
ARC
  8
WHITE
 10
156.415107
 20
548.183002
 30
0.000000
 40
5.882393
 50
144.020004
 51
179.467080
  6
CONTINUOUS
  0
LINE
  8
WHITE
 10
150.532969
 20
548.237715
 30
0.000000
 11
150.532969
 21
547.355994
 31
0.000000
  6
CONTINUOUS
  0
LINE
  8
WHITE
 10
150.532969
 20
547.355994
 30
0.000000
 11
163.070603
 21
547.355994
 31
0.000000
  6
CONTINUOUS
  0
LINE
  8
WHITE
 10
163.070603
 20
547.355994
 30
0.000000
 11
163.070603
 21
543.485027
 31
0.000000
  6
CONTINUOUS
  0
LINE
  8
WHITE
 10
163.070603
 20
543.485027
 30
0.000000
 11
146.403936
 21
543.485027
 31
0.000000
  6
CONTINUOUS
  0
LINE
  8
WHITE
 10
146.403936
 20
543.485027
 30
0.000000
 11
146.403936
 21
546.323736
 31
0.000000
  6
CONTINUOUS
  0
ARC
  8
WHITE
 10
165.420436
 20
546.551089
 30
0.000000
 40
19.017859
 50
169.234884
 51
180.684971
  6
CONTINUOUS
  0
ARC
  8
WHITE
 10
156.085339
 20
548.299389
 30
0.000000
 40
9.520531
 50
155.460187
 51
169.077763
  6
CONTINUOUS
  0
ARC
  8
WHITE
 10
153.913408
 20
549.166160
 30
0.000000
 40
7.185690
 50
142.231002
 51
154.554504
  6
CONTINUOUS
  0
ARC
  8
WHITE
 10
163.632974
 20
541.531608
 30
0.000000
 40
19.545054
 50
132.755972
 51
141.990690
  6
CONTINUOUS
  0
ARC
  8
WHITE
 10
185.416301
 20
518.469402
 30
0.000000
 40
51.267840
 50
128.286217
 51
133.133759
  6
CONTINUOUS
  0
ARC
  8
WHITE
 10
124.726331
 20
594.916920
 30
0.000000
 40
46.341467
 50
-51.378763
 51
-47.316924
  6
CONTINUOUS
  0
ARC
  8
WHITE
 10
146.468529
 20
571.396000
 30
0.000000
 40
14.310976
 50
-47.465780
 51
-40.793288
  6
CONTINUOUS
  0
ARC
  8
WHITE
 10
153.450098
 20
565.345569
 30
0.000000
 40
5.072525
 50
-40.574982
 51
-22.102274
  6
CONTINUOUS
  0
ARC
  8
WHITE
 10
154.574446
 20
564.867572
 30
0.000000
 40
3.851001
 50
-21.807349
 51
-0.092265
  6
CONTINUOUS
  0
ARC
  8
WHITE
 10
154.764794
 20
564.911248
 30
0.000000
 40
3.660988
 50
-0.780619
 51
48.085965
  6
CONTINUOUS
  0
ARC
  8
WHITE
 10
154.485320
 20
564.729031
 30
0.000000
 40
3.984210
 50
46.845587
 51
70.746637
  6
CONTINUOUS
  0
ARC
  8
WHITE
 10
154.071008
 20
563.402825
 30
0.000000
 40
5.373057
 50
71.238999
 51
90.806978
  6
CONTINUOUS
  0
ARC
  8
WHITE
 10
154.166856
 20
561.388491
 30
0.000000
 40
7.388849
 50
91.330157
 51
114.361680
  6
CONTINUOUS
  0
ARC
  8
WHITE
 10
157.692130
 20
553.366530
 30
0.000000
 40
16.150987
 50
114.015308
 51
127.664470
  6
CONTINUOUS
  0
LINE
  8
WHITE
 10
147.823291
 20
566.151693
 30
0.000000
 11
147.823291
 21
570.710833
 31
0.000000
  6
CONTINUOUS
  0
ARC
  8
WHITE
 10
417.346274
 20
710.420817
 30
0.000000
 40
7.388849
 50
91.330157
 51
114.361680
  6
CONTINUOUS
  0
ARC
  8
WHITE
 10
420.871549
 20
702.398856
 30
0.000000
 40
16.150987
 50
114.015308
 51
127.664470
  6
CONTINUOUS
  0
LINE
  8
WHITE
 10
411.002710
 20
715.184019
 30
0.000000
 11
411.002710
 21
719.743159
 31
0.000000
  6
CONTINUOUS
  0
ARC
  8
WHITE
 10
418.721482
 20
706.244080
 30
0.000000
 40
15.550067
 50
106.174468
 51
119.760919
  6
CONTINUOUS
  0
ARC
  8
WHITE
 10
417.786380
 20
709.363680
 30
0.000000
 40
12.293497
 50
90.144396
 51
106.038919
  6
CONTINUOUS
  0
ARC
  8
WHITE
 10
417.861402
 20
712.287160
 30
0.000000
 40
9.370577
 50
70.883784
 51
90.648172
  6
CONTINUOUS
  0
ARC
  8
WHITE
 10
418.353761
 20
713.874341
 30
0.000000
 40
7.709872
 50
36.629474
 51
70.478245
  6
CONTINUOUS
  0
ARC
  8
WHITE
 10
419.169783
 20
714.617250
 30
0.000000
 40
6.612662
 50
16.310272
 51
35.682195
  6
CONTINUOUS
  0
ARC
  8
WHITE
 10
417.472916
 20
714.163218
 30
0.000000
 40
8.368848
 50
-0.520139
 51
16.031035
  6
CONTINUOUS
  0
ARC
  8
WHITE
 10
417.727174
 20
714.011473
 30
0.000000
 40
8.114599
 50
-16.687663
 51
0.535022
  6
CONTINUOUS
  0
ARC
  8
WHITE
 10
419.211988
 20
713.609929
 30
0.000000
 40
6.577146
 50
-31.898526
 51
-17.051258
  6
CONTINUOUS
  0
ARC
  8
WHITE
 10
417.770926
 20
714.620823
 30
0.000000
 40
8.335322
 50
-41.756089
 51
-32.563611
  6
CONTINUOUS
  0
ARC
  8
WHITE
 10
406.358312
 20
724.773644
 30
0.000000
 40
23.610376
 50
-48.270029
 51
-41.691814
  6
CONTINUOUS
  0
ARC
  8
WHITE
 10
383.260098
 20
750.301204
 30
0.000000
 40
58.036516
 50
-51.634094
 51
-48.026878
  6
CONTINUOUS
  0
ARC
  8
WHITE
 10
446.919142
 20
669.376982
 30
0.000000
 40
44.926255
 50
127.963592
 51
133.173545
  6
CONTINUOUS
  0
ARC
  8
WHITE
 10
424.591818
 20
693.087952
 30
0.000000
 40
12.357764
 50
132.896838
 51
142.146363
  6
CONTINUOUS
  0
ARC
  8
WHITE
 10
419.594526
 20
697.215328
 30
0.000000
 40
5.882393
 50
144.020004
 51
179.467080
  6
CONTINUOUS
  0
LINE
  8
WHITE
 10
413.712387
 20
697.270041
 30
0.000000
 11
413.712387
 21
696.388320
 31
0.000000
  6
CONTINUOUS
  0
LINE
  8
WHITE
 10
413.712387
 20
696.388320
 30
0.000000
 11
426.250021
 21
696.388320
 31
0.000000
  6
CONTINUOUS
  0
LINE
  8
WHITE
 10
426.250021
 20
696.388320
 30
0.000000
 11
426.250021
 21
692.517353
 31
0.000000
  6
CONTINUOUS
  0
LINE
  8
WHITE
 10
426.250021
 20
692.517353
 30
0.000000
 11
409.583355
 21
692.517353
 31
0.000000
  6
CONTINUOUS
  0
LINE
  8
WHITE
 10
409.583355
 20
692.517353
 30
0.000000
 11
409.583355
 21
695.356062
 31
0.000000
  6
CONTINUOUS
  0
ARC
  8
WHITE
 10
428.599855
 20
695.583415
 30
0.000000
 40
19.017859
 50
169.234884
 51
180.684971
  6
CONTINUOUS
  0
ARC
  8
WHITE
 10
419.264757
 20
697.331715
 30
0.000000
 40
9.520531
 50
155.460187
 51
169.077763
  6
CONTINUOUS
  0
ARC
  8
WHITE
 10
417.092826
 20
698.198486
 30
0.000000
 40
7.185690
 50
142.231002
 51
154.554504
  6
CONTINUOUS
  0
ARC
  8
WHITE
 10
426.812392
 20
690.563934
 30
0.000000
 40
19.545054
 50
132.755972
 51
141.990690
  6
CONTINUOUS
  0
ARC
  8
WHITE
 10
448.595719
 20
667.501727
 30
0.000000
 40
51.267840
 50
128.286217
 51
133.133759
  6
CONTINUOUS
  0
ARC
  8
WHITE
 10
387.905749
 20
743.949246
 30
0.000000
 40
46.341467
 50
-51.378763
 51
-47.316924
  6
CONTINUOUS
  0
ARC
  8
WHITE
 10
409.647947
 20
720.428326
 30
0.000000
 40
14.310976
 50
-47.465780
 51
-40.793288
  6
CONTINUOUS
  0
ARC
  8
WHITE
 10
416.629516
 20
714.377895
 30
0.000000
 40
5.072525
 50
-40.574982
 51
-22.102274
  6
CONTINUOUS
  0
ARC
  8
WHITE
 10
417.753864
 20
713.899898
 30
0.000000
 40
3.851001
 50
-21.807349
 51
-0.092265
  6
CONTINUOUS
  0
ARC
  8
WHITE
 10
417.944212
 20
713.943574
 30
0.000000
 40
3.660988
 50
-0.780619
 51
48.085965
  6
CONTINUOUS
  0
ARC
  8
WHITE
 10
417.664738
 20
713.761357
 30
0.000000
 40
3.984210
 50
46.845587
 51
70.746637
  6
CONTINUOUS
  0
ARC
  8
WHITE
 10
417.250427
 20
712.435151
 30
0.000000
 40
5.373057
 50
71.238999
 51
90.806978
  6
CONTINUOUS
  0
ARC
  8
WHITE
 10
594.226368
 20
7.787207
 30
0.000000
 40
15.550067
 50
106.174468
 51
119.760919
  6
CONTINUOUS
  0
ARC
  8
WHITE
 10
593.291265
 20
10.906807
 30
0.000000
 40
12.293497
 50
90.144396
 51
106.038919
  6
CONTINUOUS
  0
ARC
  8
WHITE
 10
593.366288
 20
13.830288
 30
0.000000
 40
9.370577
 50
70.883784
 51
90.648172
  6
CONTINUOUS
  0
ARC
  8
WHITE
 10
593.858647
 20
15.417468
 30
0.000000
 40
7.709872
 50
36.629474
 51
70.478245
  6
CONTINUOUS
  0
ARC
  8
WHITE
 10
594.674669
 20
16.160378
 30
0.000000
 40
6.612662
 50
16.310272
 51
35.682195
  6
CONTINUOUS
  0
ARC
  8
WHITE
 10
592.977802
 20
15.706345
 30
0.000000
 40
8.368848
 50
-0.520139
 51
16.031035
  6
CONTINUOUS
  0
ARC
  8
WHITE
 10
593.232059
 20
15.554601
 30
0.000000
 40
8.114599
 50
-16.687663
 51
0.535022
  6
CONTINUOUS
  0
ARC
  8
WHITE
 10
594.716874
 20
15.153056
 30
0.000000
 40
6.577146
 50
-31.898526
 51
-17.051258
  6
CONTINUOUS
  0
ARC
  8
WHITE
 10
593.275812
 20
16.163951
 30
0.000000
 40
8.335322
 50
-41.756089
 51
-32.563611
  6
CONTINUOUS
  0
ARC
  8
WHITE
 10
581.863198
 20
26.316772
 30
0.000000
 40
23.610376
 50
-48.270029
 51
-41.691814
  6
CONTINUOUS
  0
ARC
  8
WHITE
 10
558.764983
 20
51.844331
 30
0.000000
 40
58.036516
 50
-51.634094
 51
-48.026878
  6
CONTINUOUS
  0
ARC
  8
WHITE
 10
622.424028
 20
-29.079891
 30
0.000000
 40
44.926255
 50
127.963592
 51
133.173545
  6
CONTINUOUS
  0
ARC
  8
WHITE
 10
600.096703
 20
-5.368921
 30
0.000000
 40
12.357764
 50
132.896838
 51
142.146363
  6
CONTINUOUS
  0
ARC
  8
WHITE
 10
595.099412
 20
-1.241544
 30
0.000000
 40
5.882393
 50
144.020004
 51
179.467080
  6
CONTINUOUS
  0
LINE
  8
WHITE
 10
589.217273
 20
-1.186832
 30
0.000000
 11
589.217273
 21
-2.068552
 31
0.000000
  6
CONTINUOUS
  0
LINE
  8
WHITE
 10
589.217273
 20
-2.068552
 30
0.000000
 11
601.754907
 21
-2.068552
 31
0.000000
  6
CONTINUOUS
  0
LINE
  8
WHITE
 10
601.754907
 20
-2.068552
 30
0.000000
 11
601.754907
 21
-5.939520
 31
0.000000
  6
CONTINUOUS
  0
LINE
  8
WHITE
 10
601.754907
 20
-5.939520
 30
0.000000
 11
585.088241
 21
-5.939520
 31
0.000000
  6
CONTINUOUS
  0
LINE
  8
WHITE
 10
585.088241
 20
-5.939520
 30
0.000000
 11
585.088241
 21
-3.100810
 31
0.000000
  6
CONTINUOUS
  0
ARC
  8
WHITE
 10
604.104741
 20
-2.873457
 30
0.000000
 40
19.017859
 50
169.234884
 51
180.684971
  6
CONTINUOUS
  0
ARC
  8
WHITE
 10
594.769643
 20
-1.125158
 30
0.000000
 40
9.520531
 50
155.460187
 51
169.077763
  6
CONTINUOUS
  0
ARC
  8
WHITE
 10
592.597712
 20
-0.258387
 30
0.000000
 40
7.185690
 50
142.231002
 51
154.554504
  6
CONTINUOUS
  0
ARC
  8
WHITE
 10
602.317278
 20
-7.892939
 30
0.000000
 40
19.545054
 50
132.755972
 51
141.990690
  6
CONTINUOUS
  0
ARC
  8
WHITE
 10
624.100605
 20
-30.955145
 30
0.000000
 40
51.267840
 50
128.286217
 51
133.133759
  6
CONTINUOUS
  0
ARC
  8
WHITE
 10
563.410635
 20
45.492373
 30
0.000000
 40
46.341467
 50
-51.378763
 51
-47.316924
  6
CONTINUOUS
  0
ARC
  8
WHITE
 10
585.152833
 20
21.971453
 30
0.000000
 40
14.310976
 50
-47.465780
 51
-40.793288
  6
CONTINUOUS
  0
ARC
  8
WHITE
 10
592.134402
 20
15.921023
 30
0.000000
 40
5.072525
 50
-40.574982
 51
-22.102274
  6
CONTINUOUS
  0
ARC
  8
WHITE
 10
593.258750
 20
15.443026
 30
0.000000
 40
3.851001
 50
-21.807349
 51
-0.092265
  6
CONTINUOUS
  0
ARC
  8
WHITE
 10
593.449098
 20
15.486701
 30
0.000000
 40
3.660988
 50
-0.780619
 51
48.085965
  6
CONTINUOUS
  0
ARC
  8
WHITE
 10
593.169624
 20
15.304484
 30
0.000000
 40
3.984210
 50
46.845587
 51
70.746637
  6
CONTINUOUS
  0
ARC
  8
WHITE
 10
592.755312
 20
13.978279
 30
0.000000
 40
5.373057
 50
71.238999
 51
90.806978
  6
CONTINUOUS
  0
ARC
  8
WHITE
 10
592.851160
 20
11.963944
 30
0.000000
 40
7.388849
 50
91.330157
 51
114.361680
  6
CONTINUOUS
  0
ARC
  8
WHITE
 10
596.376435
 20
3.941983
 30
0.000000
 40
16.150987
 50
114.015308
 51
127.664470
  6
CONTINUOUS
  0
LINE
  8
WHITE
 10
586.507595
 20
16.727147
 30
0.000000
 11
586.507595
 21
21.286287
 31
0.000000
  6
CONTINUOUS
  0
ARC
  8
WHITE
 10
692.616705
 20
1197.647965
 30
0.000000
 40
15.550067
 50
106.174468
 51
119.760919
  6
CONTINUOUS
  0
ARC
  8
WHITE
 10
691.681603
 20
1200.767565
 30
0.000000
 40
12.293497
 50
90.144396
 51
106.038919
  6
CONTINUOUS
  0
ARC
  8
WHITE
 10
691.756626
 20
1203.691045
 30
0.000000
 40
9.370577
 50
70.883784
 51
90.648172
  6
CONTINUOUS
  0
ARC
  8
WHITE
 10
692.248985
 20
1205.278226
 30
0.000000
 40
7.709872
 50
36.629474
 51
70.478245
  6
CONTINUOUS
  0
ARC
  8
WHITE
 10
693.065006
 20
1206.021135
 30
0.000000
 40
6.612662
 50
16.310272
 51
35.682195
  6
CONTINUOUS
  0
ARC
  8
WHITE
 10
691.368139
 20
1205.567103
 30
0.000000
 40
8.368848
 50
-0.520139
 51
16.031035
  6
CONTINUOUS
  0
ARC
  8
WHITE
 10
691.622397
 20
1205.415358
 30
0.000000
 40
8.114599
 50
-16.687663
 51
0.535022
  6
CONTINUOUS
  0
ARC
  8
WHITE
 10
693.107211
 20
1205.013814
 30
0.000000
 40
6.577146
 50
-31.898526
 51
-17.051258
  6
CONTINUOUS
  0
ARC
  8
WHITE
 10
691.666149
 20
1206.024709
 30
0.000000
 40
8.335322
 50
-41.756089
 51
-32.563611
  6
CONTINUOUS
  0
ARC
  8
WHITE
 10
680.253535
 20
1216.177530
 30
0.000000
 40
23.610376
 50
-48.270029
 51
-41.691814
  6
CONTINUOUS
  0
ARC
  8
WHITE
 10
657.155321
 20
1241.705089
 30
0.000000
 40
58.036516
 50
-51.634094
 51
-48.026878
  6
CONTINUOUS
  0
ARC
  8
WHITE
 10
720.814365
 20
1160.780867
 30
0.000000
 40
44.926255
 50
127.963592
 51
133.173545
  6
CONTINUOUS
  0
ARC
  8
WHITE
 10
698.487041
 20
1184.491837
 30
0.000000
 40
12.357764
 50
132.896838
 51
142.146363
  6
CONTINUOUS
  0
ARC
  8
WHITE
 10
693.489749
 20
1188.619214
 30
0.000000
 40
5.882393
 50
144.020004
 51
179.467080
  6
CONTINUOUS
  0
LINE
  8
WHITE
 10
687.607610
 20
1188.673926
 30
0.000000
 11
687.607610
 21
1187.792206
 31
0.000000
  6
CONTINUOUS
  0
LINE
  8
WHITE
 10
687.607610
 20
1187.792206
 30
0.000000
 11
700.145245
 21
1187.792206
 31
0.000000
  6
CONTINUOUS
  0
LINE
  8
WHITE
 10
700.145245
 20
1187.792206
 30
0.000000
 11
700.145245
 21
1183.921238
 31
0.000000
  6
CONTINUOUS
  0
LINE
  8
WHITE
 10
700.145245
 20
1183.921238
 30
0.000000
 11
683.478578
 21
1183.921238
 31
0.000000
  6
CONTINUOUS
  0
LINE
  8
WHITE
 10
683.478578
 20
1183.921238
 30
0.000000
 11
683.478578
 21
1186.759948
 31
0.000000
  6
CONTINUOUS
  0
ARC
  8
WHITE
 10
702.495078
 20
1186.987301
 30
0.000000
 40
19.017859
 50
169.234884
 51
180.684971
  6
CONTINUOUS
  0
ARC
  8
WHITE
 10
693.159980
 20
1188.735600
 30
0.000000
 40
9.520531
 50
155.460187
 51
169.077763
  6
CONTINUOUS
  0
ARC
  8
WHITE
 10
690.988049
 20
1189.602371
 30
0.000000
 40
7.185690
 50
142.231002
 51
154.554504
  6
CONTINUOUS
  0
ARC
  8
WHITE
 10
700.707615
 20
1181.967819
 30
0.000000
 40
19.545054
 50
132.755972
 51
141.990690
  6
CONTINUOUS
  0
ARC
  8
WHITE
 10
722.490943
 20
1158.905613
 30
0.000000
 40
51.267840
 50
128.286217
 51
133.133759
  6
CONTINUOUS
  0
ARC
  8
WHITE
 10
661.800972
 20
1235.353131
 30
0.000000
 40
46.341467
 50
-51.378763
 51
-47.316924
  6
CONTINUOUS
  0
ARC
  8
WHITE
 10
683.543170
 20
1211.832211
 30
0.000000
 40
14.310976
 50
-47.465780
 51
-40.793288
  6
CONTINUOUS
  0
ARC
  8
WHITE
 10
690.524740
 20
1205.781780
 30
0.000000
 40
5.072525
 50
-40.574982
 51
-22.102274
  6
CONTINUOUS
  0
ARC
  8
WHITE
 10
691.649087
 20
1205.303784
 30
0.000000
 40
3.851001
 50
-21.807349
 51
-0.092265
  6
CONTINUOUS
  0
ARC
  8
WHITE
 10
691.839435
 20
1205.347459
 30
0.000000
 40
3.660988
 50
-0.780619
 51
48.085965
  6
CONTINUOUS
  0
ARC
  8
WHITE
 10
691.559962
 20
1205.165242
 30
0.000000
 40
3.984210
 50
46.845587
 51
70.746637
  6
CONTINUOUS
  0
ARC
  8
WHITE
 10
691.145650
 20
1203.839036
 30
0.000000
 40
5.373057
 50
71.238999
 51
90.806978
  6
CONTINUOUS
  0
ARC
  8
WHITE
 10
691.241497
 20
1201.824702
 30
0.000000
 40
7.388849
 50
91.330157
 51
114.361680
  6
CONTINUOUS
  0
ARC
  8
WHITE
 10
694.766772
 20
1193.802741
 30
0.000000
 40
16.150987
 50
114.015308
 51
127.664470
  6
CONTINUOUS
  0
LINE
  8
WHITE
 10
684.897933
 20
1206.587905
 30
0.000000
 11
684.897933
 21
1211.147044
 31
0.000000
  6
CONTINUOUS
  0
ARC
  8
WHITE
 10
1221.317322
 20
1188.571530
 30
0.000000
 40
15.550067
 50
106.174468
 51
119.760919
  6
CONTINUOUS
  0
ARC
  8
WHITE
 10
1220.382220
 20
1191.691130
 30
0.000000
 40
12.293497
 50
90.144396
 51
106.038919
  6
CONTINUOUS
  0
ARC
  8
WHITE
 10
1220.457242
 20
1194.614610
 30
0.000000
 40
9.370577
 50
70.883784
 51
90.648172
  6
CONTINUOUS
  0
ARC
  8
WHITE
 10
1220.949602
 20
1196.201791
 30
0.000000
 40
7.709872
 50
36.629474
 51
70.478245
  6
CONTINUOUS
  0
ARC
  8
WHITE
 10
1221.765623
 20
1196.944700
 30
0.000000
 40
6.612662
 50
16.310272
 51
35.682195
  6
CONTINUOUS
  0
ARC
  8
WHITE
 10
1220.068756
 20
1196.490668
 30
0.000000
 40
8.368848
 50
-0.520139
 51
16.031035
  6
CONTINUOUS
  0
ARC
  8
WHITE
 10
1220.323014
 20
1196.338923
 30
0.000000
 40
8.114599
 50
-16.687663
 51
0.535022
  6
CONTINUOUS
  0
ARC
  8
WHITE
 10
1221.807828
 20
1195.937379
 30
0.000000
 40
6.577146
 50
-31.898526
 51
-17.051258
  6
CONTINUOUS
  0
ARC
  8
WHITE
 10
1220.366766
 20
1196.948273
 30
0.000000
 40
8.335322
 50
-41.756089
 51
-32.563611
  6
CONTINUOUS
  0
ARC
  8
WHITE
 10
1208.954152
 20
1207.101094
 30
0.000000
 40
23.610376
 50
-48.270029
 51
-41.691814
  6
CONTINUOUS
  0
ARC
  8
WHITE
 10
1185.855938
 20
1232.628654
 30
0.000000
 40
58.036516
 50
-51.634094
 51
-48.026878
  6
CONTINUOUS
  0
ARC
  8
WHITE
 10
1249.514982
 20
1151.704432
 30
0.000000
 40
44.926255
 50
127.963592
 51
133.173545
  6
CONTINUOUS
  0
ARC
  8
WHITE
 10
1227.187658
 20
1175.415402
 30
0.000000
 40
12.357764
 50
132.896838
 51
142.146363
  6
CONTINUOUS
  0
ARC
  8
WHITE
 10
1222.190366
 20
1179.542778
 30
0.000000
 40
5.882393
 50
144.020004
 51
179.467080
  6
CONTINUOUS
  0
LINE
  8
WHITE
 10
1216.308227
 20
1179.597491
 30
0.000000
 11
1216.308227
 21
1178.715770
 31
0.000000
  6
CONTINUOUS
  0
LINE
  8
WHITE
 10
1216.308227
 20
1178.715770
 30
0.000000
 11
1228.845862
 21
1178.715770
 31
0.000000
  6
CONTINUOUS
  0
LINE
  8
WHITE
 10
1228.845862
 20
1178.715770
 30
0.000000
 11
1228.845862
 21
1174.844803
 31
0.000000
  6
CONTINUOUS
  0
LINE
  8
WHITE
 10
1228.845862
 20
1174.844803
 30
0.000000
 11
1212.179195
 21
1174.844803
 31
0.000000
  6
CONTINUOUS
  0
LINE
  8
WHITE
 10
1212.179195
 20
1174.844803
 30
0.000000
 11
1212.179195
 21
1177.683512
 31
0.000000
  6
CONTINUOUS
  0
ARC
  8
WHITE
 10
1231.195695
 20
1177.910865
 30
0.000000
 40
19.017859
 50
169.234884
 51
180.684971
  6
CONTINUOUS
  0
ARC
  8
WHITE
 10
1221.860597
 20
1179.659165
 30
0.000000
 40
9.520531
 50
155.460187
 51
169.077763
  6
CONTINUOUS
  0
ARC
  8
WHITE
 10
1219.688666
 20
1180.525936
 30
0.000000
 40
7.185690
 50
142.231002
 51
154.554504
  6
CONTINUOUS
  0
ARC
  8
WHITE
 10
1229.408232
 20
1172.891384
 30
0.000000
 40
19.545054
 50
132.755972
 51
141.990690
  6
CONTINUOUS
  0
ARC
  8
WHITE
 10
1251.191560
 20
1149.829178
 30
0.000000
 40
51.267840
 50
128.286217
 51
133.133759
  6
CONTINUOUS
  0
ARC
  8
WHITE
 10
1190.501589
 20
1226.276696
 30
0.000000
 40
46.341467
 50
-51.378763
 51
-47.316924
  6
CONTINUOUS
  0
ARC
  8
WHITE
 10
1212.243787
 20
1202.755776
 30
0.000000
 40
14.310976
 50
-47.465780
 51
-40.793288
  6
CONTINUOUS
  0
ARC
  8
WHITE
 10
1219.225357
 20
1196.705345
 30
0.000000
 40
5.072525
 50
-40.574982
 51
-22.102274
  6
CONTINUOUS
  0
ARC
  8
WHITE
 10
1220.349704
 20
1196.227348
 30
0.000000
 40
3.851001
 50
-21.807349
 51
-0.092265
  6
CONTINUOUS
  0
ARC
  8
WHITE
 10
1220.540052
 20
1196.271024
 30
0.000000
 40
3.660988
 50
-0.780619
 51
48.085965
  6
CONTINUOUS
  0
ARC
  8
WHITE
 10
1220.260578
 20
1196.088807
 30
0.000000
 40
3.984210
 50
46.845587
 51
70.746637
  6
CONTINUOUS
  0
ARC
  8
WHITE
 10
1219.846267
 20
1194.762601
 30
0.000000
 40
5.373057
 50
71.238999
 51
90.806978
  6
CONTINUOUS
  0
ARC
  8
WHITE
 10
1219.942114
 20
1192.748267
 30
0.000000
 40
7.388849
 50
91.330157
 51
114.361680
  6
CONTINUOUS
  0
ARC
  8
WHITE
 10
1223.467389
 20
1184.726306
 30
0.000000
 40
16.150987
 50
114.015308
 51
127.664470
  6
CONTINUOUS
  0
LINE
  8
WHITE
 10
1213.598550
 20
1197.511469
 30
0.000000
 11
1213.598550
 21
1202.070609
 31
0.000000
  6
CONTINUOUS
  0
ARC
  8
WHITE
 10
1223.420197
 20
146.150829
 30
0.000000
 40
15.550067
 50
106.174468
 51
119.760919
  6
CONTINUOUS
  0
ARC
  8
WHITE
 10
1222.485094
 20
149.270429
 30
0.000000
 40
12.293497
 50
90.144396
 51
106.038919
  6
CONTINUOUS
  0
ARC
  8
WHITE
 10
1222.560117
 20
152.193909
 30
0.000000
 40
9.370577
 50
70.883784
 51
90.648172
  6
CONTINUOUS
  0
ARC
  8
WHITE
 10
1223.052476
 20
153.781090
 30
0.000000
 40
7.709872
 50
36.629474
 51
70.478245
  6
CONTINUOUS
  0
ARC
  8
WHITE
 10
1223.868498
 20
154.523999
 30
0.000000
 40
6.612662
 50
16.310272
 51
35.682195
  6
CONTINUOUS
  0
ARC
  8
WHITE
 10
1222.171631
 20
154.069966
 30
0.000000
 40
8.368848
 50
-0.520139
 51
16.031035
  6
CONTINUOUS
  0
ARC
  8
WHITE
 10
1222.425888
 20
153.918222
 30
0.000000
 40
8.114599
 50
-16.687663
 51
0.535022
  6
CONTINUOUS
  0
ARC
  8
WHITE
 10
1223.910702
 20
153.516678
 30
0.000000
 40
6.577146
 50
-31.898526
 51
-17.051258
  6
CONTINUOUS
  0
ARC
  8
WHITE
 10
1222.469640
 20
154.527572
 30
0.000000
 40
8.335322
 50
-41.756089
 51
-32.563611
  6
CONTINUOUS
  0
ARC
  8
WHITE
 10
1211.057027
 20
164.680393
 30
0.000000
 40
23.610376
 50
-48.270029
 51
-41.691814
  6
CONTINUOUS
  0
ARC
  8
WHITE
 10
1187.958812
 20
190.207953
 30
0.000000
 40
58.036516
 50
-51.634094
 51
-48.026878
  6
CONTINUOUS
  0
ARC
  8
WHITE
 10
1251.617857
 20
109.283730
 30
0.000000
 40
44.926255
 50
127.963592
 51
133.173545
  6
CONTINUOUS
  0
ARC
  8
WHITE
 10
1229.290532
 20
132.994701
 30
0.000000
 40
12.357764
 50
132.896838
 51
142.146363
  6
CONTINUOUS
  0
ARC
  8
WHITE
 10
1224.293240
 20
137.122077
 30
0.000000
 40
5.882393
 50
144.020004
 51
179.467080
  6
CONTINUOUS
  0
LINE
  8
WHITE
 10
1218.411102
 20
137.176790
 30
0.000000
 11
1218.411102
 21
136.295069
 31
0.000000
  6
CONTINUOUS
  0
LINE
  8
WHITE
 10
1218.411102
 20
136.295069
 30
0.000000
 11
1230.948736
 21
136.295069
 31
0.000000
  6
CONTINUOUS
  0
LINE
  8
WHITE
 10
1230.948736
 20
136.295069
 30
0.000000
 11
1230.948736
 21
132.424102
 31
0.000000
  6
CONTINUOUS
  0
LINE
  8
WHITE
 10
1230.948736
 20
132.424102
 30
0.000000
 11
1214.282069
 21
132.424102
 31
0.000000
  6
CONTINUOUS
  0
LINE
  8
WHITE
 10
1214.282069
 20
132.424102
 30
0.000000
 11
1214.282069
 21
135.262811
 31
0.000000
  6
CONTINUOUS
  0
ARC
  8
WHITE
 10
1233.298569
 20
135.490164
 30
0.000000
 40
19.017859
 50
169.234884
 51
180.684971
  6
CONTINUOUS
  0
ARC
  8
WHITE
 10
1223.963472
 20
137.238464
 30
0.000000
 40
9.520531
 50
155.460187
 51
169.077763
  6
CONTINUOUS
  0
ARC
  8
WHITE
 10
1221.791541
 20
138.105235
 30
0.000000
 40
7.185690
 50
142.231002
 51
154.554504
  6
CONTINUOUS
  0
ARC
  8
WHITE
 10
1231.511107
 20
130.470683
 30
0.000000
 40
19.545054
 50
132.755972
 51
141.990690
  6
CONTINUOUS
  0
ARC
  8
WHITE
 10
1253.294434
 20
107.408476
 30
0.000000
 40
51.267840
 50
128.286217
 51
133.133759
  6
CONTINUOUS
  0
ARC
  8
WHITE
 10
1192.604464
 20
183.855995
 30
0.000000
 40
46.341467
 50
-51.378763
 51
-47.316924
  6
CONTINUOUS
  0
ARC
  8
WHITE
 10
1214.346662
 20
160.335075
 30
0.000000
 40
14.310976
 50
-47.465780
 51
-40.793288
  6
CONTINUOUS
  0
ARC
  8
WHITE
 10
1221.328231
 20
154.284644
 30
0.000000
 40
5.072525
 50
-40.574982
 51
-22.102274
  6
CONTINUOUS
  0
ARC
  8
WHITE
 10
1222.452579
 20
153.806647
 30
0.000000
 40
3.851001
 50
-21.807349
 51
-0.092265
  6
CONTINUOUS
  0
ARC
  8
WHITE
 10
1222.642927
 20
153.850323
 30
0.000000
 40
3.660988
 50
-0.780619
 51
48.085965
  6
CONTINUOUS
  0
ARC
  8
WHITE
 10
1222.363453
 20
153.668106
 30
0.000000
 40
3.984210
 50
46.845587
 51
70.746637
  6
CONTINUOUS
  0
ARC
  8
WHITE
 10
1221.949141
 20
152.341900
 30
0.000000
 40
5.373057
 50
71.238999
 51
90.806978
  6
CONTINUOUS
  0
ARC
  8
WHITE
 10
1222.044989
 20
150.327566
 30
0.000000
 40
7.388849
 50
91.330157
 51
114.361680
  6
CONTINUOUS
  0
ARC
  8
WHITE
 10
1225.570263
 20
142.305605
 30
0.000000
 40
16.150987
 50
114.015308
 51
127.664470
  6
CONTINUOUS
  0
LINE
  8
WHITE
 10
1215.701424
 20
155.090768
 30
0.000000
 11
1215.701424
 21
159.649908
 31
0.000000
  6
CONTINUOUS
  0
ARC
  8
WHITE
 10
1228.396986
 20
336.100372
 30
0.000000
 40
5.882393
 50
144.020004
 51
179.467080
  6
CONTINUOUS
  0
LINE
  8
WHITE
 10
1222.514848
 20
336.155084
 30
0.000000
 11
1222.514848
 21
335.273364
 31
0.000000
  6
CONTINUOUS
  0
LINE
  8
WHITE
 10
1222.514848
 20
335.273364
 30
0.000000
 11
1235.052482
 21
335.273364
 31
0.000000
  6
CONTINUOUS
  0
LINE
  8
WHITE
 10
1235.052482
 20
335.273364
 30
0.000000
 11
1235.052482
 21
331.402396
 31
0.000000
  6
CONTINUOUS
  0
LINE
  8
WHITE
 10
1235.052482
 20
331.402396
 30
0.000000
 11
1218.385815
 21
331.402396
 31
0.000000
  6
CONTINUOUS
  0
LINE
  8
WHITE
 10
1218.385815
 20
331.402396
 30
0.000000
 11
1218.385815
 21
334.241106
 31
0.000000
  6
CONTINUOUS
  0
ARC
  8
WHITE
 10
1237.402315
 20
334.468459
 30
0.000000
 40
19.017859
 50
169.234884
 51
180.684971
  6
CONTINUOUS
  0
ARC
  8
WHITE
 10
1228.067218
 20
336.216758
 30
0.000000
 40
9.520531
 50
155.460187
 51
169.077763
  6
CONTINUOUS
  0
ARC
  8
WHITE
 10
1225.895287
 20
337.083529
 30
0.000000
 40
7.185690
 50
142.231002
 51
154.554504
  6
CONTINUOUS
  0
ARC
  8
WHITE
 10
1235.614853
 20
329.448977
 30
0.000000
 40
19.545054
 50
132.755972
 51
141.990690
  6
CONTINUOUS
  0
ARC
  8
WHITE
 10
1257.398180
 20
306.386771
 30
0.000000
 40
51.267840
 50
128.286217
 51
133.133759
  6
CONTINUOUS
  0
ARC
  8
WHITE
 10
1196.708210
 20
382.834289
 30
0.000000
 40
46.341467
 50
-51.378763
 51
-47.316924
  6
CONTINUOUS
  0
ARC
  8
WHITE
 10
1218.450408
 20
359.313369
 30
0.000000
 40
14.310976
 50
-47.465780
 51
-40.793288
  6
CONTINUOUS
  0
ARC
  8
WHITE
 10
1225.431977
 20
353.262939
 30
0.000000
 40
5.072525
 50
-40.574982
 51
-22.102274
  6
CONTINUOUS
  0
ARC
  8
WHITE
 10
1226.556325
 20
352.784942
 30
0.000000
 40
3.851001
 50
-21.807349
 51
-0.092265
  6
CONTINUOUS
  0
ARC
  8
WHITE
 10
1226.746673
 20
352.828617
 30
0.000000
 40
3.660988
 50
-0.780619
 51
48.085965
  6
CONTINUOUS
  0
ARC
  8
WHITE
 10
1226.467199
 20
352.646400
 30
0.000000
 40
3.984210
 50
46.845587
 51
70.746637
  6
CONTINUOUS
  0
ARC
  8
WHITE
 10
1226.052887
 20
351.320194
 30
0.000000
 40
5.373057
 50
71.238999
 51
90.806978
  6
CONTINUOUS
  0
ARC
  8
WHITE
 10
1226.148735
 20
349.305860
 30
0.000000
 40
7.388849
 50
91.330157
 51
114.361680
  6
CONTINUOUS
  0
ARC
  8
WHITE
 10
1229.674009
 20
341.283899
 30
0.000000
 40
16.150987
 50
114.015308
 51
127.664470
  6
CONTINUOUS
  0
LINE
  8
WHITE
 10
1219.805170
 20
354.069063
 30
0.000000
 11
1219.805170
 21
358.628203
 31
0.000000
  6
CONTINUOUS
  0
ARC
  8
WHITE
 10
1227.523943
 20
345.129123
 30
0.000000
 40
15.550067
 50
106.174468
 51
119.760919
  6
CONTINUOUS
  0
ARC
  8
WHITE
 10
1226.588840
 20
348.248723
 30
0.000000
 40
12.293497
 50
90.144396
 51
106.038919
  6
CONTINUOUS
  0
ARC
  8
WHITE
 10
1226.663863
 20
351.172203
 30
0.000000
 40
9.370577
 50
70.883784
 51
90.648172
  6
CONTINUOUS
  0
ARC
  8
WHITE
 10
1227.156222
 20
352.759384
 30
0.000000
 40
7.709872
 50
36.629474
 51
70.478245
  6
CONTINUOUS
  0
ARC
  8
WHITE
 10
1227.972244
 20
353.502293
 30
0.000000
 40
6.612662
 50
16.310272
 51
35.682195
  6
CONTINUOUS
  0
ARC
  8
WHITE
 10
1226.275377
 20
353.048261
 30
0.000000
 40
8.368848
 50
-0.520139
 51
16.031035
  6
CONTINUOUS
  0
ARC
  8
WHITE
 10
1226.529634
 20
352.896516
 30
0.000000
 40
8.114599
 50
-16.687663
 51
0.535022
  6
CONTINUOUS
  0
ARC
  8
WHITE
 10
1228.014448
 20
352.494972
 30
0.000000
 40
6.577146
 50
-31.898526
 51
-17.051258
  6
CONTINUOUS
  0
ARC
  8
WHITE
 10
1226.573386
 20
353.505867
 30
0.000000
 40
8.335322
 50
-41.756089
 51
-32.563611
  6
CONTINUOUS
  0
ARC
  8
WHITE
 10
1215.160773
 20
363.658688
 30
0.000000
 40
23.610376
 50
-48.270029
 51
-41.691814
  6
CONTINUOUS
  0
ARC
  8
WHITE
 10
1192.062558
 20
389.186247
 30
0.000000
 40
58.036516
 50
-51.634094
 51
-48.026878
  6
CONTINUOUS
  0
ARC
  8
WHITE
 10
1255.721603
 20
308.262025
 30
0.000000
 40
44.926255
 50
127.963592
 51
133.173545
  6
CONTINUOUS
  0
ARC
  8
WHITE
 10
1233.394278
 20
331.972995
 30
0.000000
 40
12.357764
 50
132.896838
 51
142.146363
  6
CONTINUOUS
  0
ARC
  8
WHITE
 10
1546.686607
 20
859.304306
 30
0.000000
 40
15.550067
 50
106.174468
 51
119.760919
  6
CONTINUOUS
  0
ARC
  8
WHITE
 10
1545.751504
 20
862.423906
 30
0.000000
 40
12.293497
 50
90.144396
 51
106.038919
  6
CONTINUOUS
  0
ARC
  8
WHITE
 10
1545.826527
 20
865.347387
 30
0.000000
 40
9.370577
 50
70.883784
 51
90.648172
  6
CONTINUOUS
  0
ARC
  8
WHITE
 10
1546.318886
 20
866.934567
 30
0.000000
 40
7.709872
 50
36.629474
 51
70.478245
  6
CONTINUOUS
  0
ARC
  8
WHITE
 10
1547.134908
 20
867.677477
 30
0.000000
 40
6.612662
 50
16.310272
 51
35.682195
  6
CONTINUOUS
  0
ARC
  8
WHITE
 10
1545.438041
 20
867.223444
 30
0.000000
 40
8.368848
 50
-0.520139
 51
16.031035
  6
CONTINUOUS
  0
ARC
  8
WHITE
 10
1545.692298
 20
867.071700
 30
0.000000
 40
8.114599
 50
-16.687663
 51
0.535022
  6
CONTINUOUS
  0
ARC
  8
WHITE
 10
1547.177112
 20
866.670155
 30
0.000000
 40
6.577146
 50
-31.898526
 51
-17.051258
  6
CONTINUOUS
  0
ARC
  8
WHITE
 10
1545.736050
 20
867.681050
 30
0.000000
 40
8.335322
 50
-41.756089
 51
-32.563611
  6
CONTINUOUS
  0
ARC
  8
WHITE
 10
1534.323437
 20
877.833871
 30
0.000000
 40
23.610376
 50
-48.270029
 51
-41.691814
  6
CONTINUOUS
  0
ARC
  8
WHITE
 10
1511.225222
 20
903.361430
 30
0.000000
 40
58.036516
 50
-51.634094
 51
-48.026878
  6
CONTINUOUS
  0
ARC
  8
WHITE
 10
1574.884266
 20
822.437208
 30
0.000000
 40
44.926255
 50
127.963592
 51
133.173545
  6
CONTINUOUS
  0
ARC
  8
WHITE
 10
1552.556942
 20
846.148178
 30
0.000000
 40
12.357764
 50
132.896838
 51
142.146363
  6
CONTINUOUS
  0
ARC
  8
WHITE
 10
1547.559650
 20
850.275555
 30
0.000000
 40
5.882393
 50
144.020004
 51
179.467080
  6
CONTINUOUS
  0
LINE
  8
WHITE
 10
1541.677511
 20
850.330267
 30
0.000000
 11
1541.677511
 21
849.448547
 31
0.000000
  6
CONTINUOUS
  0
LINE
  8
WHITE
 10
1541.677511
 20
849.448547
 30
0.000000
 11
1554.215146
 21
849.448547
 31
0.000000
  6
CONTINUOUS
  0
LINE
  8
WHITE
 10
1554.215146
 20
849.448547
 30
0.000000
 11
1554.215146
 21
845.577579
 31
0.000000
  6
CONTINUOUS
  0
LINE
  8
WHITE
 10
1554.215146
 20
845.577579
 30
0.000000
 11
1537.548479
 21
845.577579
 31
0.000000
  6
CONTINUOUS
  0
LINE
  8
WHITE
 10
1537.548479
 20
845.577579
 30
0.000000
 11
1537.548479
 21
848.416289
 31
0.000000
  6
CONTINUOUS
  0
ARC
  8
WHITE
 10
1556.564979
 20
848.643642
 30
0.000000
 40
19.017859
 50
169.234884
 51
180.684971
  6
CONTINUOUS
  0
ARC
  8
WHITE
 10
1547.229882
 20
850.391941
 30
0.000000
 40
9.520531
 50
155.460187
 51
169.077763
  6
CONTINUOUS
  0
ARC
  8
WHITE
 10
1545.057951
 20
851.258712
 30
0.000000
 40
7.185690
 50
142.231002
 51
154.554504
  6
CONTINUOUS
  0
ARC
  8
WHITE
 10
1554.777517
 20
843.624160
 30
0.000000
 40
19.545054
 50
132.755972
 51
141.990690
  6
CONTINUOUS
  0
ARC
  8
WHITE
 10
1576.560844
 20
820.561954
 30
0.000000
 40
51.267840
 50
128.286217
 51
133.133759
  6
CONTINUOUS
  0
ARC
  8
WHITE
 10
1515.870874
 20
897.009472
 30
0.000000
 40
46.341467
 50
-51.378763
 51
-47.316924
  6
CONTINUOUS
  0
ARC
  8
WHITE
 10
1537.613071
 20
873.488552
 30
0.000000
 40
14.310976
 50
-47.465780
 51
-40.793288
  6
CONTINUOUS
  0
ARC
  8
WHITE
 10
1544.594641
 20
867.438122
 30
0.000000
 40
5.072525
 50
-40.574982
 51
-22.102274
  6
CONTINUOUS
  0
ARC
  8
WHITE
 10
1545.718989
 20
866.960125
 30
0.000000
 40
3.851001
 50
-21.807349
 51
-0.092265
  6
CONTINUOUS
  0
ARC
  8
WHITE
 10
1545.909337
 20
867.003800
 30
0.000000
 40
3.660988
 50
-0.780619
 51
48.085965
  6
CONTINUOUS
  0
ARC
  8
WHITE
 10
1545.629863
 20
866.821583
 30
0.000000
 40
3.984210
 50
46.845587
 51
70.746637
  6
CONTINUOUS
  0
ARC
  8
WHITE
 10
1545.215551
 20
865.495378
 30
0.000000
 40
5.373057
 50
71.238999
 51
90.806978
  6
CONTINUOUS
  0
ARC
  8
WHITE
 10
1545.311398
 20
863.481043
 30
0.000000
 40
7.388849
 50
91.330157
 51
114.361680
  6
CONTINUOUS
  0
ARC
  8
WHITE
 10
1548.836673
 20
855.459082
 30
0.000000
 40
16.150987
 50
114.015308
 51
127.664470
  6
CONTINUOUS
  0
LINE
  8
WHITE
 10
1538.967834
 20
868.244246
 30
0.000000
 11
1538.967834
 21
872.803386
 31
0.000000
  6
CONTINUOUS
  0
ARC
  8
WHITE
 10
1823.501556
 20
1190.988270
 30
0.000000
 40
15.550067
 50
106.174468
 51
119.760919
  6
CONTINUOUS
  0
ARC
  8
WHITE
 10
1822.566453
 20
1194.107870
 30
0.000000
 40
12.293497
 50
90.144396
 51
106.038919
  6
CONTINUOUS
  0
ARC
  8
WHITE
 10
1822.641476
 20
1197.031350
 30
0.000000
 40
9.370577
 50
70.883784
 51
90.648172
  6
CONTINUOUS
  0
ARC
  8
WHITE
 10
1823.133835
 20
1198.618531
 30
0.000000
 40
7.709872
 50
36.629474
 51
70.478245
  6
CONTINUOUS
  0
ARC
  8
WHITE
 10
1823.949857
 20
1199.361440
 30
0.000000
 40
6.612662
 50
16.310272
 51
35.682195
  6
CONTINUOUS
  0
ARC
  8
WHITE
 10
1822.252990
 20
1198.907408
 30
0.000000
 40
8.368848
 50
-0.520139
 51
16.031035
  6
CONTINUOUS
  0
ARC
  8
WHITE
 10
1822.507247
 20
1198.755663
 30
0.000000
 40
8.114599
 50
-16.687663
 51
0.535022
  6
CONTINUOUS
  0
ARC
  8
WHITE
 10
1823.992061
 20
1198.354119
 30
0.000000
 40
6.577146
 50
-31.898526
 51
-17.051258
  6
CONTINUOUS
  0
ARC
  8
WHITE
 10
1822.550999
 20
1199.365014
 30
0.000000
 40
8.335322
 50
-41.756089
 51
-32.563611
  6
CONTINUOUS
  0
ARC
  8
WHITE
 10
1811.138386
 20
1209.517835
 30
0.000000
 40
23.610376
 50
-48.270029
 51
-41.691814
  6
CONTINUOUS
  0
ARC
  8
WHITE
 10
1788.040171
 20
1235.045394
 30
0.000000
 40
58.036516
 50
-51.634094
 51
-48.026878
  6
CONTINUOUS
  0
ARC
  8
WHITE
 10
1851.699216
 20
1154.121172
 30
0.000000
 40
44.926255
 50
127.963592
 51
133.173545
  6
CONTINUOUS
  0
ARC
  8
WHITE
 10
1829.371891
 20
1177.832142
 30
0.000000
 40
12.357764
 50
132.896838
 51
142.146363
  6
CONTINUOUS
  0
ARC
  8
WHITE
 10
1824.374599
 20
1181.959519
 30
0.000000
 40
5.882393
 50
144.020004
 51
179.467080
  6
CONTINUOUS
  0
LINE
  8
WHITE
 10
1818.492461
 20
1182.014231
 30
0.000000
 11
1818.492461
 21
1181.132511
 31
0.000000
  6
CONTINUOUS
  0
LINE
  8
WHITE
 10
1818.492461
 20
1181.132511
 30
0.000000
 11
1831.030095
 21
1181.132511
 31
0.000000
  6
CONTINUOUS
  0
LINE
  8
WHITE
 10
1831.030095
 20
1181.132511
 30
0.000000
 11
1831.030095
 21
1177.261543
 31
0.000000
  6
CONTINUOUS
  0
LINE
  8
WHITE
 10
1831.030095
 20
1177.261543
 30
0.000000
 11
1814.363428
 21
1177.261543
 31
0.000000
  6
CONTINUOUS
  0
LINE
  8
WHITE
 10
1814.363428
 20
1177.261543
 30
0.000000
 11
1814.363428
 21
1180.100253
 31
0.000000
  6
CONTINUOUS
  0
ARC
  8
WHITE
 10
1833.379928
 20
1180.327606
 30
0.000000
 40
19.017859
 50
169.234884
 51
180.684971
  6
CONTINUOUS
  0
ARC
  8
WHITE
 10
1824.044831
 20
1182.075905
 30
0.000000
 40
9.520531
 50
155.460187
 51
169.077763
  6
CONTINUOUS
  0
ARC
  8
WHITE
 10
1821.872900
 20
1182.942676
 30
0.000000
 40
7.185690
 50
142.231002
 51
154.554504
  6
CONTINUOUS
  0
ARC
  8
WHITE
 10
1831.592466
 20
1175.308124
 30
0.000000
 40
19.545054
 50
132.755972
 51
141.990690
  6
CONTINUOUS
  0
ARC
  8
WHITE
 10
1853.375793
 20
1152.245918
 30
0.000000
 40
51.267840
 50
128.286217
 51
133.133759
  6
CONTINUOUS
  0
ARC
  8
WHITE
 10
1792.685823
 20
1228.693436
 30
0.000000
 40
46.341467
 50
-51.378763
 51
-47.316924
  6
CONTINUOUS
  0
ARC
  8
WHITE
 10
1814.428021
 20
1205.172516
 30
0.000000
 40
14.310976
 50
-47.465780
 51
-40.793288
  6
CONTINUOUS
  0
ARC
  8
WHITE
 10
1821.409590
 20
1199.122086
 30
0.000000
 40
5.072525
 50
-40.574982
 51
-22.102274
  6
CONTINUOUS
  0
ARC
  8
WHITE
 10
1822.533938
 20
1198.644089
 30
0.000000
 40
3.851001
 50
-21.807349
 51
-0.092265
  6
CONTINUOUS
  0
ARC
  8
WHITE
 10
1822.724286
 20
1198.687764
 30
0.000000
 40
3.660988
 50
-0.780619
 51
48.085965
  6
CONTINUOUS
  0
ARC
  8
WHITE
 10
1822.444812
 20
1198.505547
 30
0.000000
 40
3.984210
 50
46.845587
 51
70.746637
  6
CONTINUOUS
  0
ARC
  8
WHITE
 10
1822.030500
 20
1197.179341
 30
0.000000
 40
5.373057
 50
71.238999
 51
90.806978
  6
CONTINUOUS
  0
ARC
  8
WHITE
 10
1822.126348
 20
1195.165007
 30
0.000000
 40
7.388849
 50
91.330157
 51
114.361680
  6
CONTINUOUS
  0
ARC
  8
WHITE
 10
1825.651622
 20
1187.143046
 30
0.000000
 40
16.150987
 50
114.015308
 51
127.664470
  6
CONTINUOUS
  0
LINE
  8
WHITE
 10
1815.782783
 20
1199.928210
 30
0.000000
 11
1815.782783
 21
1204.487350
 31
0.000000
  6
CONTINUOUS
  0
ARC
  8
WHITE
 10
1843.127274
 20
1197.179341
 30
0.000000
 40
5.373057
 50
71.238999
 51
90.806978
  6
CONTINUOUS
  0
ARC
  8
WHITE
 10
1843.223122
 20
1195.165007
 30
0.000000
 40
7.388849
 50
91.330157
 51
114.361680
  6
CONTINUOUS
  0
ARC
  8
WHITE
 10
1846.748397
 20
1187.143046
 30
0.000000
 40
16.150987
 50
114.015308
 51
127.664470
  6
CONTINUOUS
  0
LINE
  8
WHITE
 10
1836.879557
 20
1199.928210
 30
0.000000
 11
1836.879557
 21
1204.487350
 31
0.000000
  6
CONTINUOUS
  0
ARC
  8
WHITE
 10
1844.598330
 20
1190.988270
 30
0.000000
 40
15.550067
 50
106.174468
 51
119.760919
  6
CONTINUOUS
  0
ARC
  8
WHITE
 10
1843.663227
 20
1194.107870
 30
0.000000
 40
12.293497
 50
90.144396
 51
106.038919
  6
CONTINUOUS
  0
ARC
  8
WHITE
 10
1843.738250
 20
1197.031350
 30
0.000000
 40
9.370577
 50
70.883784
 51
90.648172
  6
CONTINUOUS
  0
ARC
  8
WHITE
 10
1844.230609
 20
1198.618531
 30
0.000000
 40
7.709872
 50
36.629474
 51
70.478245
  6
CONTINUOUS
  0
ARC
  8
WHITE
 10
1845.046631
 20
1199.361440
 30
0.000000
 40
6.612662
 50
16.310272
 51
35.682195
  6
CONTINUOUS
  0
ARC
  8
WHITE
 10
1843.349764
 20
1198.907408
 30
0.000000
 40
8.368848
 50
-0.520139
 51
16.031035
  6
CONTINUOUS
  0
ARC
  8
WHITE
 10
1843.604022
 20
1198.755663
 30
0.000000
 40
8.114599
 50
-16.687663
 51
0.535022
  6
CONTINUOUS
  0
ARC
  8
WHITE
 10
1845.088836
 20
1198.354119
 30
0.000000
 40
6.577146
 50
-31.898526
 51
-17.051258
  6
CONTINUOUS
  0
ARC
  8
WHITE
 10
1843.647774
 20
1199.365014
 30
0.000000
 40
8.335322
 50
-41.756089
 51
-32.563611
  6
CONTINUOUS
  0
ARC
  8
WHITE
 10
1832.235160
 20
1209.517835
 30
0.000000
 40
23.610376
 50
-48.270029
 51
-41.691814
  6
CONTINUOUS
  0
ARC
  8
WHITE
 10
1809.136945
 20
1235.045394
 30
0.000000
 40
58.036516
 50
-51.634094
 51
-48.026878
  6
CONTINUOUS
  0
ARC
  8
WHITE
 10
1872.795990
 20
1154.121172
 30
0.000000
 40
44.926255
 50
127.963592
 51
133.173545
  6
CONTINUOUS
  0
ARC
  8
WHITE
 10
1850.468665
 20
1177.832142
 30
0.000000
 40
12.357764
 50
132.896838
 51
142.146363
  6
CONTINUOUS
  0
ARC
  8
WHITE
 10
1845.471374
 20
1181.959519
 30
0.000000
 40
5.882393
 50
144.020004
 51
179.467080
  6
CONTINUOUS
  0
LINE
  8
WHITE
 10
1839.589235
 20
1182.014231
 30
0.000000
 11
1839.589235
 21
1181.132511
 31
0.000000
  6
CONTINUOUS
  0
LINE
  8
WHITE
 10
1839.589235
 20
1181.132511
 30
0.000000
 11
1852.126869
 21
1181.132511
 31
0.000000
  6
CONTINUOUS
  0
LINE
  8
WHITE
 10
1852.126869
 20
1181.132511
 30
0.000000
 11
1852.126869
 21
1177.261543
 31
0.000000
  6
CONTINUOUS
  0
LINE
  8
WHITE
 10
1852.126869
 20
1177.261543
 30
0.000000
 11
1835.460203
 21
1177.261543
 31
0.000000
  6
CONTINUOUS
  0
LINE
  8
WHITE
 10
1835.460203
 20
1177.261543
 30
0.000000
 11
1835.460203
 21
1180.100253
 31
0.000000
  6
CONTINUOUS
  0
ARC
  8
WHITE
 10
1854.476703
 20
1180.327606
 30
0.000000
 40
19.017859
 50
169.234884
 51
180.684971
  6
CONTINUOUS
  0
ARC
  8
WHITE
 10
1845.141605
 20
1182.075905
 30
0.000000
 40
9.520531
 50
155.460187
 51
169.077763
  6
CONTINUOUS
  0
ARC
  8
WHITE
 10
1842.969674
 20
1182.942676
 30
0.000000
 40
7.185690
 50
142.231002
 51
154.554504
  6
CONTINUOUS
  0
ARC
  8
WHITE
 10
1852.689240
 20
1175.308124
 30
0.000000
 40
19.545054
 50
132.755972
 51
141.990690
  6
CONTINUOUS
  0
ARC
  8
WHITE
 10
1874.472567
 20
1152.245918
 30
0.000000
 40
51.267840
 50
128.286217
 51
133.133759
  6
CONTINUOUS
  0
ARC
  8
WHITE
 10
1813.782597
 20
1228.693436
 30
0.000000
 40
46.341467
 50
-51.378763
 51
-47.316924
  6
CONTINUOUS
  0
ARC
  8
WHITE
 10
1835.524795
 20
1205.172516
 30
0.000000
 40
14.310976
 50
-47.465780
 51
-40.793288
  6
CONTINUOUS
  0
ARC
  8
WHITE
 10
1842.506364
 20
1199.122086
 30
0.000000
 40
5.072525
 50
-40.574982
 51
-22.102274
  6
CONTINUOUS
  0
ARC
  8
WHITE
 10
1843.630712
 20
1198.644089
 30
0.000000
 40
3.851001
 50
-21.807349
 51
-0.092265
  6
CONTINUOUS
  0
ARC
  8
WHITE
 10
1843.821060
 20
1198.687764
 30
0.000000
 40
3.660988
 50
-0.780619
 51
48.085965
  6
CONTINUOUS
  0
ARC
  8
WHITE
 10
1843.541586
 20
1198.505547
 30
0.000000
 40
3.984210
 50
46.845587
 51
70.746637
  6
CONTINUOUS
  0
ARC
  8
WHITE
 10
1867.197999
 20
537.290500
 30
0.000000
 40
15.550067
 50
106.174468
 51
119.760919
  6
CONTINUOUS
  0
ARC
  8
WHITE
 10
1866.262896
 20
540.410100
 30
0.000000
 40
12.293497
 50
90.144396
 51
106.038919
  6
CONTINUOUS
  0
ARC
  8
WHITE
 10
1866.337919
 20
543.333580
 30
0.000000
 40
9.370577
 50
70.883784
 51
90.648172
  6
CONTINUOUS
  0
ARC
  8
WHITE
 10
1866.830278
 20
544.920761
 30
0.000000
 40
7.709872
 50
36.629474
 51
70.478245
  6
CONTINUOUS
  0
ARC
  8
WHITE
 10
1867.646300
 20
545.663670
 30
0.000000
 40
6.612662
 50
16.310272
 51
35.682195
  6
CONTINUOUS
  0
ARC
  8
WHITE
 10
1865.949433
 20
545.209637
 30
0.000000
 40
8.368848
 50
-0.520139
 51
16.031035
  6
CONTINUOUS
  0
ARC
  8
WHITE
 10
1866.203691
 20
545.057893
 30
0.000000
 40
8.114599
 50
-16.687663
 51
0.535022
  6
CONTINUOUS
  0
ARC
  8
WHITE
 10
1867.688505
 20
544.656349
 30
0.000000
 40
6.577146
 50
-31.898526
 51
-17.051258
  6
CONTINUOUS
  0
ARC
  8
WHITE
 10
1866.247443
 20
545.667243
 30
0.000000
 40
8.335322
 50
-41.756089
 51
-32.563611
  6
CONTINUOUS
  0
ARC
  8
WHITE
 10
1854.834829
 20
555.820064
 30
0.000000
 40
23.610376
 50
-48.270029
 51
-41.691814
  6
CONTINUOUS
  0
ARC
  8
WHITE
 10
1831.736614
 20
581.347624
 30
0.000000
 40
58.036516
 50
-51.634094
 51
-48.026878
  6
CONTINUOUS
  0
ARC
  8
WHITE
 10
1895.395659
 20
500.423401
 30
0.000000
 40
44.926255
 50
127.963592
 51
133.173545
  6
CONTINUOUS
  0
ARC
  8
WHITE
 10
1873.068334
 20
524.134371
 30
0.000000
 40
12.357764
 50
132.896838
 51
142.146363
  6
CONTINUOUS
  0
ARC
  8
WHITE
 10
1868.071043
 20
528.261748
 30
0.000000
 40
5.882393
 50
144.020004
 51
179.467080
  6
CONTINUOUS
  0
LINE
  8
WHITE
 10
1862.188904
 20
528.316461
 30
0.000000
 11
1862.188904
 21
527.434740
 31
0.000000
  6
CONTINUOUS
  0
LINE
  8
WHITE
 10
1862.188904
 20
527.434740
 30
0.000000
 11
1874.726538
 21
527.434740
 31
0.000000
  6
CONTINUOUS
  0
LINE
  8
WHITE
 10
1874.726538
 20
527.434740
 30
0.000000
 11
1874.726538
 21
523.563772
 31
0.000000
  6
CONTINUOUS
  0
LINE
  8
WHITE
 10
1874.726538
 20
523.563772
 30
0.000000
 11
1858.059872
 21
523.563772
 31
0.000000
  6
CONTINUOUS
  0
LINE
  8
WHITE
 10
1858.059872
 20
523.563772
 30
0.000000
 11
1858.059872
 21
526.402482
 31
0.000000
  6
CONTINUOUS
  0
ARC
  8
WHITE
 10
1877.076372
 20
526.629835
 30
0.000000
 40
19.017859
 50
169.234884
 51
180.684971
  6
CONTINUOUS
  0
ARC
  8
WHITE
 10
1867.741274
 20
528.378135
 30
0.000000
 40
9.520531
 50
155.460187
 51
169.077763
  6
CONTINUOUS
  0
ARC
  8
WHITE
 10
1865.569343
 20
529.244905
 30
0.000000
 40
7.185690
 50
142.231002
 51
154.554504
  6
CONTINUOUS
  0
ARC
  8
WHITE
 10
1875.288909
 20
521.610353
 30
0.000000
 40
19.545054
 50
132.755972
 51
141.990690
  6
CONTINUOUS
  0
ARC
  8
WHITE
 10
1897.072236
 20
498.548147
 30
0.000000
 40
51.267840
 50
128.286217
 51
133.133759
  6
CONTINUOUS
  0
ARC
  8
WHITE
 10
1836.382266
 20
574.995665
 30
0.000000
 40
46.341467
 50
-51.378763
 51
-47.316924
  6
CONTINUOUS
  0
ARC
  8
WHITE
 10
1858.124464
 20
551.474746
 30
0.000000
 40
14.310976
 50
-47.465780
 51
-40.793288
  6
CONTINUOUS
  0
ARC
  8
WHITE
 10
1865.106033
 20
545.424315
 30
0.000000
 40
5.072525
 50
-40.574982
 51
-22.102274
  6
CONTINUOUS
  0
ARC
  8
WHITE
 10
1866.230381
 20
544.946318
 30
0.000000
 40
3.851001
 50
-21.807349
 51
-0.092265
  6
CONTINUOUS
  0
ARC
  8
WHITE
 10
1866.420729
 20
544.989994
 30
0.000000
 40
3.660988
 50
-0.780619
 51
48.085965
  6
CONTINUOUS
  0
ARC
  8
WHITE
 10
1866.141255
 20
544.807777
 30
0.000000
 40
3.984210
 50
46.845587
 51
70.746637
  6
CONTINUOUS
  0
ARC
  8
WHITE
 10
1865.726943
 20
543.481571
 30
0.000000
 40
5.373057
 50
71.238999
 51
90.806978
  6
CONTINUOUS
  0
ARC
  8
WHITE
 10
1865.822791
 20
541.467237
 30
0.000000
 40
7.388849
 50
91.330157
 51
114.361680
  6
CONTINUOUS
  0
ARC
  8
WHITE
 10
1869.348066
 20
533.445275
 30
0.000000
 40
16.150987
 50
114.015308
 51
127.664470
  6
CONTINUOUS
  0
LINE
  8
WHITE
 10
1859.479226
 20
546.230439
 30
0.000000
 11
1859.479226
 21
550.789579
 31
0.000000
  6
CONTINUOUS
  0
ARC
  8
WHITE
 10
1914.445443
 20
10.310664
 30
0.000000
 40
15.550067
 50
106.174468
 51
119.760919
  6
CONTINUOUS
  0
ARC
  8
WHITE
 10
1913.510340
 20
13.430264
 30
0.000000
 40
12.293497
 50
90.144396
 51
106.038919
  6
CONTINUOUS
  0
ARC
  8
WHITE
 10
1913.585363
 20
16.353744
 30
0.000000
 40
9.370577
 50
70.883784
 51
90.648172
  6
CONTINUOUS
  0
ARC
  8
WHITE
 10
1914.077722
 20
17.940925
 30
0.000000
 40
7.709872
 50
36.629474
 51
70.478245
  6
CONTINUOUS
  0
ARC
  8
WHITE
 10
1914.893744
 20
18.683834
 30
0.000000
 40
6.612662
 50
16.310272
 51
35.682195
  6
CONTINUOUS
  0
ARC
  8
WHITE
 10
1913.196877
 20
18.229801
 30
0.000000
 40
8.368848
 50
-0.520139
 51
16.031035
  6
CONTINUOUS
  0
ARC
  8
WHITE
 10
1913.451134
 20
18.078057
 30
0.000000
 40
8.114599
 50
-16.687663
 51
0.535022
  6
CONTINUOUS
  0
ARC
  8
WHITE
 10
1914.935949
 20
17.676513
 30
0.000000
 40
6.577146
 50
-31.898526
 51
-17.051258
  6
CONTINUOUS
  0
ARC
  8
WHITE
 10
1913.494887
 20
18.687407
 30
0.000000
 40
8.335322
 50
-41.756089
 51
-32.563611
  6
CONTINUOUS
  0
ARC
  8
WHITE
 10
1902.082273
 20
28.840228
 30
0.000000
 40
23.610376
 50
-48.270029
 51
-41.691814
  6
CONTINUOUS
  0
ARC
  8
WHITE
 10
1878.984058
 20
54.367788
 30
0.000000
 40
58.036516
 50
-51.634094
 51
-48.026878
  6
CONTINUOUS
  0
ARC
  8
WHITE
 10
1942.643103
 20
-26.556435
 30
0.000000
 40
44.926255
 50
127.963592
 51
133.173545
  6
CONTINUOUS
  0
ARC
  8
WHITE
 10
1920.315778
 20
-2.845464
 30
0.000000
 40
12.357764
 50
132.896838
 51
142.146363
  6
CONTINUOUS
  0
ARC
  8
WHITE
 10
1915.318487
 20
1.281912
 30
0.000000
 40
5.882393
 50
144.020004
 51
179.467080
  6
CONTINUOUS
  0
LINE
  8
WHITE
 10
1909.436348
 20
1.336625
 30
0.000000
 11
1909.436348
 21
0.454904
 31
0.000000
  6
CONTINUOUS
  0
LINE
  8
WHITE
 10
1909.436348
 20
0.454904
 30
0.000000
 11
1921.973982
 21
0.454904
 31
0.000000
  6
CONTINUOUS
  0
LINE
  8
WHITE
 10
1921.973982
 20
0.454904
 30
0.000000
 11
1921.973982
 21
-3.416064
 31
0.000000
  6
CONTINUOUS
  0
LINE
  8
WHITE
 10
1921.973982
 20
-3.416064
 30
0.000000
 11
1905.307316
 21
-3.416064
 31
0.000000
  6
CONTINUOUS
  0
LINE
  8
WHITE
 10
1905.307316
 20
-3.416064
 30
0.000000
 11
1905.307316
 21
-0.577354
 31
0.000000
  6
CONTINUOUS
  0
ARC
  8
WHITE
 10
1924.323815
 20
-0.350001
 30
0.000000
 40
19.017859
 50
169.234884
 51
180.684971
  6
CONTINUOUS
  0
ARC
  8
WHITE
 10
1914.988718
 20
1.398299
 30
0.000000
 40
9.520531
 50
155.460187
 51
169.077763
  6
CONTINUOUS
  0
ARC
  8
WHITE
 10
1912.816787
 20
2.265069
 30
0.000000
 40
7.185690
 50
142.231002
 51
154.554504
  6
CONTINUOUS
  0
ARC
  8
WHITE
 10
1922.536353
 20
-5.369483
 30
0.000000
 40
19.545054
 50
132.755972
 51
141.990690
  6
CONTINUOUS
  0
ARC
  8
WHITE
 10
1944.319680
 20
-28.431689
 30
0.000000
 40
51.267840
 50
128.286217
 51
133.133759
  6
CONTINUOUS
  0
ARC
  8
WHITE
 10
1883.629710
 20
48.015829
 30
0.000000
 40
46.341467
 50
-51.378763
 51
-47.316924
  6
CONTINUOUS
  0
ARC
  8
WHITE
 10
1905.371908
 20
24.494910
 30
0.000000
 40
14.310976
 50
-47.465780
 51
-40.793288
  6
CONTINUOUS
  0
ARC
  8
WHITE
 10
1912.353477
 20
18.444479
 30
0.000000
 40
5.072525
 50
-40.574982
 51
-22.102274
  6
CONTINUOUS
  0
ARC
  8
WHITE
 10
1913.477825
 20
17.966482
 30
0.000000
 40
3.851001
 50
-21.807349
 51
-0.092265
  6
CONTINUOUS
  0
ARC
  8
WHITE
 10
1913.668173
 20
18.010158
 30
0.000000
 40
3.660988
 50
-0.780619
 51
48.085965
  6
CONTINUOUS
  0
ARC
  8
WHITE
 10
1913.388699
 20
17.827941
 30
0.000000
 40
3.984210
 50
46.845587
 51
70.746637
  6
CONTINUOUS
  0
ARC
  8
WHITE
 10
1912.974387
 20
16.501735
 30
0.000000
 40
5.373057
 50
71.238999
 51
90.806978
  6
CONTINUOUS
  0
ARC
  8
WHITE
 10
1913.070235
 20
14.487401
 30
0.000000
 40
7.388849
 50
91.330157
 51
114.361680
  6
CONTINUOUS
  0
ARC
  8
WHITE
 10
1916.595510
 20
6.465439
 30
0.000000
 40
16.150987
 50
114.015308
 51
127.664470
  6
CONTINUOUS
  0
LINE
  8
WHITE
 10
1906.726670
 20
19.250603
 30
0.000000
 11
1906.726670
 21
23.809743
 31
0.000000
  6
CONTINUOUS
  0
ARC
  8
WHITE
 10
2391.281001
 20
8.028419
 30
0.000000
 40
15.550067
 50
106.174468
 51
119.760919
  6
CONTINUOUS
  0
ARC
  8
WHITE
 10
2390.345899
 20
11.148019
 30
0.000000
 40
12.293497
 50
90.144396
 51
106.038919
  6
CONTINUOUS
  0
ARC
  8
WHITE
 10
2390.420921
 20
14.071499
 30
0.000000
 40
9.370577
 50
70.883784
 51
90.648172
  6
CONTINUOUS
  0
ARC
  8
WHITE
 10
2390.913281
 20
15.658680
 30
0.000000
 40
7.709872
 50
36.629474
 51
70.478245
  6
CONTINUOUS
  0
ARC
  8
WHITE
 10
2391.729302
 20
16.401589
 30
0.000000
 40
6.612662
 50
16.310272
 51
35.682195
  6
CONTINUOUS
  0
ARC
  8
WHITE
 10
2390.032435
 20
15.947557
 30
0.000000
 40
8.368848
 50
-0.520139
 51
16.031035
  6
CONTINUOUS
  0
ARC
  8
WHITE
 10
2390.286693
 20
15.795812
 30
0.000000
 40
8.114599
 50
-16.687663
 51
0.535022
  6
CONTINUOUS
  0
ARC
  8
WHITE
 10
2391.771507
 20
15.394268
 30
0.000000
 40
6.577146
 50
-31.898526
 51
-17.051258
  6
CONTINUOUS
  0
ARC
  8
WHITE
 10
2390.330445
 20
16.405162
 30
0.000000
 40
8.335322
 50
-41.756089
 51
-32.563611
  6
CONTINUOUS
  0
ARC
  8
WHITE
 10
2378.917831
 20
26.557983
 30
0.000000
 40
23.610376
 50
-48.270029
 51
-41.691814
  6
CONTINUOUS
  0
ARC
  8
WHITE
 10
2355.819617
 20
52.085543
 30
0.000000
 40
58.036516
 50
-51.634094
 51
-48.026878
  6
CONTINUOUS
  0
ARC
  8
WHITE
 10
2419.478661
 20
-28.838679
 30
0.000000
 40
44.926255
 50
127.963592
 51
133.173545
  6
CONTINUOUS
  0
ARC
  8
WHITE
 10
2397.151337
 20
-5.127709
 30
0.000000
 40
12.357764
 50
132.896838
 51
142.146363
  6
CONTINUOUS
  0
ARC
  8
WHITE
 10
2392.154045
 20
-1.000333
 30
0.000000
 40
5.882393
 50
144.020004
 51
179.467080
  6
CONTINUOUS
  0
LINE
  8
WHITE
 10
2386.271906
 20
-0.945620
 30
0.000000
 11
2386.271906
 21
-1.827340
 31
0.000000
  6
CONTINUOUS
  0
LINE
  8
WHITE
 10
2386.271906
 20
-1.827340
 30
0.000000
 11
2398.809540
 21
-1.827340
 31
0.000000
  6
CONTINUOUS
  0
LINE
  8
WHITE
 10
2398.809540
 20
-1.827340
 30
0.000000
 11
2398.809540
 21
-5.698308
 31
0.000000
  6
CONTINUOUS
  0
LINE
  8
WHITE
 10
2398.809540
 20
-5.698308
 30
0.000000
 11
2382.142874
 21
-5.698308
 31
0.000000
  6
CONTINUOUS
  0
LINE
  8
WHITE
 10
2382.142874
 20
-5.698308
 30
0.000000
 11
2382.142874
 21
-2.859599
 31
0.000000
  6
CONTINUOUS
  0
ARC
  8
WHITE
 10
2401.159374
 20
-2.632246
 30
0.000000
 40
19.017859
 50
169.234884
 51
180.684971
  6
CONTINUOUS
  0
ARC
  8
WHITE
 10
2391.824276
 20
-0.883946
 30
0.000000
 40
9.520531
 50
155.460187
 51
169.077763
  6
CONTINUOUS
  0
ARC
  8
WHITE
 10
2389.652345
 20
-0.017175
 30
0.000000
 40
7.185690
 50
142.231002
 51
154.554504
  6
CONTINUOUS
  0
ARC
  8
WHITE
 10
2399.371911
 20
-7.651727
 30
0.000000
 40
19.545054
 50
132.755972
 51
141.990690
  6
CONTINUOUS
  0
ARC
  8
WHITE
 10
2421.155239
 20
-30.713933
 30
0.000000
 40
51.267840
 50
128.286217
 51
133.133759
  6
CONTINUOUS
  0
ARC
  8
WHITE
 10
2360.465268
 20
45.733585
 30
0.000000
 40
46.341467
 50
-51.378763
 51
-47.316924
  6
CONTINUOUS
  0
ARC
  8
WHITE
 10
2382.207466
 20
22.212665
 30
0.000000
 40
14.310976
 50
-47.465780
 51
-40.793288
  6
CONTINUOUS
  0
ARC
  8
WHITE
 10
2389.189036
 20
16.162234
 30
0.000000
 40
5.072525
 50
-40.574982
 51
-22.102274
  6
CONTINUOUS
  0
ARC
  8
WHITE
 10
2390.313383
 20
15.684237
 30
0.000000
 40
3.851001
 50
-21.807349
 51
-0.092265
  6
CONTINUOUS
  0
ARC
  8
WHITE
 10
2390.503731
 20
15.727913
 30
0.000000
 40
3.660988
 50
-0.780619
 51
48.085965
  6
CONTINUOUS
  0
ARC
  8
WHITE
 10
2390.224257
 20
15.545696
 30
0.000000
 40
3.984210
 50
46.845587
 51
70.746637
  6
CONTINUOUS
  0
ARC
  8
WHITE
 10
2389.809946
 20
14.219490
 30
0.000000
 40
5.373057
 50
71.238999
 51
90.806978
  6
CONTINUOUS
  0
ARC
  8
WHITE
 10
2389.905793
 20
12.205156
 30
0.000000
 40
7.388849
 50
91.330157
 51
114.361680
  6
CONTINUOUS
  0
ARC
  8
WHITE
 10
2393.431068
 20
4.183195
 30
0.000000
 40
16.150987
 50
114.015308
 51
127.664470
  6
CONTINUOUS
  0
LINE
  8
WHITE
 10
2383.562229
 20
16.968358
 30
0.000000
 11
2383.562229
 21
21.527498
 31
0.000000
  6
CONTINUOUS
  0
ARC
  8
WHITE
 10
2461.107772
 20
1192.814484
 30
0.000000
 40
15.550067
 50
106.174468
 51
119.760919
  6
CONTINUOUS
  0
ARC
  8
WHITE
 10
2460.172670
 20
1195.934084
 30
0.000000
 40
12.293497
 50
90.144396
 51
106.038919
  6
CONTINUOUS
  0
ARC
  8
WHITE
 10
2460.247692
 20
1198.857565
 30
0.000000
 40
9.370577
 50
70.883784
 51
90.648172
  6
CONTINUOUS
  0
ARC
  8
WHITE
 10
2460.740051
 20
1200.444745
 30
0.000000
 40
7.709872
 50
36.629474
 51
70.478245
  6
CONTINUOUS
  0
ARC
  8
WHITE
 10
2461.556073
 20
1201.187655
 30
0.000000
 40
6.612662
 50
16.310272
 51
35.682195
  6
CONTINUOUS
  0
ARC
  8
WHITE
 10
2459.859206
 20
1200.733622
 30
0.000000
 40
8.368848
 50
-0.520139
 51
16.031035
  6
CONTINUOUS
  0
ARC
  8
WHITE
 10
2460.113464
 20
1200.581878
 30
0.000000
 40
8.114599
 50
-16.687663
 51
0.535022
  6
CONTINUOUS
  0
ARC
  8
WHITE
 10
2461.598278
 20
1200.180333
 30
0.000000
 40
6.577146
 50
-31.898526
 51
-17.051258
  6
CONTINUOUS
  0
ARC
  8
WHITE
 10
2460.157216
 20
1201.191228
 30
0.000000
 40
8.335322
 50
-41.756089
 51
-32.563611
  6
CONTINUOUS
  0
ARC
  8
WHITE
 10
2448.744602
 20
1211.344049
 30
0.000000
 40
23.610376
 50
-48.270029
 51
-41.691814
  6
CONTINUOUS
  0
ARC
  8
WHITE
 10
2425.646388
 20
1236.871608
 30
0.000000
 40
58.036516
 50
-51.634094
 51
-48.026878
  6
CONTINUOUS
  0
ARC
  8
WHITE
 10
2489.305432
 20
1155.947386
 30
0.000000
 40
44.926255
 50
127.963592
 51
133.173545
  6
CONTINUOUS
  0
ARC
  8
WHITE
 10
2466.978108
 20
1179.658356
 30
0.000000
 40
12.357764
 50
132.896838
 51
142.146363
  6
CONTINUOUS
  0
ARC
  8
WHITE
 10
2461.980816
 20
1183.785733
 30
0.000000
 40
5.882393
 50
144.020004
 51
179.467080
  6
CONTINUOUS
  0
LINE
  8
WHITE
 10
2456.098677
 20
1183.840445
 30
0.000000
 11
2456.098677
 21
1182.958725
 31
0.000000
  6
CONTINUOUS
  0
LINE
  8
WHITE
 10
2456.098677
 20
1182.958725
 30
0.000000
 11
2468.636311
 21
1182.958725
 31
0.000000
  6
CONTINUOUS
  0
LINE
  8
WHITE
 10
2468.636311
 20
1182.958725
 30
0.000000
 11
2468.636311
 21
1179.087757
 31
0.000000
  6
CONTINUOUS
  0
LINE
  8
WHITE
 10
2468.636311
 20
1179.087757
 30
0.000000
 11
2451.969645
 21
1179.087757
 31
0.000000
  6
CONTINUOUS
  0
LINE
  8
WHITE
 10
2451.969645
 20
1179.087757
 30
0.000000
 11
2451.969645
 21
1181.926467
 31
0.000000
  6
CONTINUOUS
  0
ARC
  8
WHITE
 10
2470.986145
 20
1182.153820
 30
0.000000
 40
19.017859
 50
169.234884
 51
180.684971
  6
CONTINUOUS
  0
ARC
  8
WHITE
 10
2461.651047
 20
1183.902119
 30
0.000000
 40
9.520531
 50
155.460187
 51
169.077763
  6
CONTINUOUS
  0
ARC
  8
WHITE
 10
2459.479116
 20
1184.768890
 30
0.000000
 40
7.185690
 50
142.231002
 51
154.554504
  6
CONTINUOUS
  0
ARC
  8
WHITE
 10
2469.198682
 20
1177.134338
 30
0.000000
 40
19.545054
 50
132.755972
 51
141.990690
  6
CONTINUOUS
  0
ARC
  8
WHITE
 10
2490.982010
 20
1154.072132
 30
0.000000
 40
51.267840
 50
128.286217
 51
133.133759
  6
CONTINUOUS
  0
ARC
  8
WHITE
 10
2430.292039
 20
1230.519650
 30
0.000000
 40
46.341467
 50
-51.378763
 51
-47.316924
  6
CONTINUOUS
  0
ARC
  8
WHITE
 10
2452.034237
 20
1206.998730
 30
0.000000
 40
14.310976
 50
-47.465780
 51
-40.793288
  6
CONTINUOUS
  0
ARC
  8
WHITE
 10
2459.015806
 20
1200.948300
 30
0.000000
 40
5.072525
 50
-40.574982
 51
-22.102274
  6
CONTINUOUS
  0
ARC
  8
WHITE
 10
2460.140154
 20
1200.470303
 30
0.000000
 40
3.851001
 50
-21.807349
 51
-0.092265
  6
CONTINUOUS
  0
ARC
  8
WHITE
 10
2460.330502
 20
1200.513978
 30
0.000000
 40
3.660988
 50
-0.780619
 51
48.085965
  6
CONTINUOUS
  0
ARC
  8
WHITE
 10
2460.051028
 20
1200.331761
 30
0.000000
 40
3.984210
 50
46.845587
 51
70.746637
  6
CONTINUOUS
  0
ARC
  8
WHITE
 10
2459.636717
 20
1199.005556
 30
0.000000
 40
5.373057
 50
71.238999
 51
90.806978
  6
CONTINUOUS
  0
ARC
  8
WHITE
 10
2459.732564
 20
1196.991221
 30
0.000000
 40
7.388849
 50
91.330157
 51
114.361680
  6
CONTINUOUS
  0
ARC
  8
WHITE
 10
2463.257839
 20
1188.969260
 30
0.000000
 40
16.150987
 50
114.015308
 51
127.664470
  6
CONTINUOUS
  0
LINE
  8
WHITE
 10
2453.389000
 20
1201.754424
 30
0.000000
 11
2453.389000
 21
1206.313564
 31
0.000000
  6
CONTINUOUS
  0
ARC
  8
WHITE
 10
-37.960435
 20
1208.501137
 30
0.000000
 40
14.359475
 50
106.093430
 51
119.430505
  6
CONTINUOUS
  0
ARC
  8
WHITE
 10
-38.874836
 20
1211.585566
 30
0.000000
 40
11.142470
 50
90.174070
 51
105.972340
  6
CONTINUOUS
  0
ARC
  8
WHITE
 10
-38.816212
 20
1213.259509
 30
0.000000
 40
9.468927
 50
72.117889
 51
90.559574
  6
CONTINUOUS
  0
ARC
  8
WHITE
 10
-38.389260
 20
1214.765872
 30
0.000000
 40
7.904436
 50
56.123449
 51
71.710393
  6
CONTINUOUS
  0
ARC
  8
WHITE
 10
-37.207118
 20
1216.260452
 30
0.000000
 40
6.006476
 50
27.092395
 51
57.538944
  6
CONTINUOUS
  0
ARC
  8
WHITE
 10
-38.495028
 20
1215.830002
 30
0.000000
 40
7.351919
 50
-1.381778
 51
25.507574
  6
CONTINUOUS
  0
ARC
  8
WHITE
 10
-38.460855
 20
1215.588544
 30
0.000000
 40
7.315890
 50
-15.430884
 51
0.502580
  6
CONTINUOUS
  0
ARC
  8
WHITE
 10
-36.924901
 20
1215.191917
 30
0.000000
 40
5.729832
 50
-44.221649
 51
-15.694379
  6
CONTINUOUS
  0
ARC
  8
WHITE
 10
-41.828454
 20
1220.209754
 30
0.000000
 40
12.744785
 50
-61.720965
 51
-45.013375
  6
CONTINUOUS
  0
ARC
  8
WHITE
 10
-38.209923
 20
1198.559367
 30
0.000000
 40
10.703726
 50
61.939290
 51
76.935714
  6
CONTINUOUS
  0
ARC
  8
WHITE
 10
-36.079332
 20
1202.439417
 30
0.000000
 40
6.277773
 50
30.182366
 51
62.440695
  6
CONTINUOUS
  0
ARC
  8
WHITE
 10
-36.872441
 20
1202.248907
 30
0.000000
 40
7.063019
 50
-1.521912
 51
28.283340
  6
CONTINUOUS
  0
ARC
  8
WHITE
 10
-38.657444
 20
1201.952062
 30
0.000000
 40
8.846205
 50
-22.670215
 51
0.707656
  6
CONTINUOUS
  0
ARC
  8
WHITE
 10
-38.641541
 20
1202.193050
 30
0.000000
 40
8.927339
 50
-58.521865
 51
-24.136883
  6
CONTINUOUS
  0
ARC
  8
WHITE
 10
-38.981707
 20
1202.659966
 30
0.000000
 40
9.503281
 50
-90.986042
 51
-58.242744
  6
CONTINUOUS
  0
ARC
  8
WHITE
 10
-39.080879
 20
1203.652600
 30
0.000000
 40
10.494705
 50
-106.150414
 51
-90.351417
  6
CONTINUOUS
  0
ARC
  8
WHITE
 10
-37.779476
 20
1208.105533
 30
0.000000
 40
15.133905
 50
-118.566637
 51
-106.193633
  6
CONTINUOUS
  0
LINE
  8
WHITE
 10
-45.016215
 20
1194.814006
 30
0.000000
 11
-45.016215
 21
1199.416157
 31
0.000000
  6
CONTINUOUS
  0
ARC
  8
WHITE
 10
-36.883081
 20
1209.292943
 30
0.000000
 40
12.794482
 50
-129.470073
 51
-114.232704
  6
CONTINUOUS
  0
ARC
  8
WHITE
 10
-39.360183
 20
1203.766409
 30
0.000000
 40
6.738209
 50
-114.313444
 51
-90.915349
  6
CONTINUOUS
  0
ARC
  8
WHITE
 10
-39.399970
 20
1202.855471
 30
0.000000
 40
5.826806
 50
-90.667269
 51
-69.283758
  6
CONTINUOUS
  0
ARC
  8
WHITE
 10
-39.179383
 20
1202.195903
 30
0.000000
 40
5.131924
 50
-68.982406
 51
1.138575
  6
CONTINUOUS
  0
ARC
  8
WHITE
 10
-38.698636
 20
1202.380165
 30
0.000000
 40
4.650892
 50
-1.013789
 51
22.977423
  6
CONTINUOUS
  0
ARC
  8
WHITE
 10
-38.102736
 20
1202.513386
 30
0.000000
 40
4.051758
 50
24.532699
 51
64.097271
  6
CONTINUOUS
  0
ARC
  8
WHITE
 10
-38.943491
 20
1200.926225
 30
0.000000
 40
5.847087
 50
63.480433
 51
79.014019
  6
CONTINUOUS
  0
ARC
  8
WHITE
 10
-39.588114
 20
1197.632858
 30
0.000000
 40
9.202945
 50
78.981664
 51
90.456117
  6
CONTINUOUS
  0
LINE
  8
WHITE
 10
-39.661376
 20
1206.835512
 30
0.000000
 11
-42.306537
 21
1206.835512
 31
0.000000
  6
CONTINUOUS
  0
LINE
  8
WHITE
 10
-42.306537
 20
1206.835512
 30
0.000000
 11
-42.306537
 21
1210.405404
 31
0.000000
  6
CONTINUOUS
  0
LINE
  8
WHITE
 10
-42.306537
 20
1210.405404
 30
0.000000
 11
-40.736645
 21
1210.405404
 31
0.000000
  6
CONTINUOUS
  0
ARC
  8
WHITE
 10
-40.627498
 20
1217.872781
 30
0.000000
 40
7.468175
 50
-90.837402
 51
-73.363214
  6
CONTINUOUS
  0
ARC
  8
WHITE
 10
-39.794750
 20
1215.124463
 30
0.000000
 40
4.596499
 50
-73.500770
 51
-37.524095
  6
CONTINUOUS
  0
ARC
  8
WHITE
 10
-39.541829
 20
1214.808482
 30
0.000000
 40
4.204554
 50
-36.208263
 51
1.540745
  6
CONTINUOUS
  0
ARC
  8
WHITE
 10
-39.704295
 20
1214.996024
 30
0.000000
 40
4.366135
 50
-0.977576
 51
21.424843
  6
CONTINUOUS
  0
ARC
  8
WHITE
 10
-38.948534
 20
1215.199055
 30
0.000000
 40
3.589492
 50
22.814692
 51
60.485499
  6
CONTINUOUS
  0
ARC
  8
WHITE
 10
-39.418435
 20
1214.446061
 30
0.000000
 40
4.476425
 50
59.999569
 51
91.182795
  6
CONTINUOUS
  0
ARC
  8
WHITE
 10
-39.387350
 20
1212.470922
 30
0.000000
 40
6.451793
 50
91.096713
 51
115.201022
  6
CONTINUOUS
  0
ARC
  8
WHITE
 10
-36.608116
 20
1206.469861
 30
0.000000
 40
13.065117
 50
115.023327
 51
130.057286
  6
CONTINUOUS
  0
LINE
  8
WHITE
 10
-45.016215
 20
1216.469920
 30
0.000000
 11
-45.016215
 21
1221.007555
 31
0.000000
  6
CONTINUOUS
  0
ARC
  8
WHITE
 10
-35.328641
 20
1110.220359
 30
0.000000
 40
14.359475
 50
106.093430
 51
119.430505
  6
CONTINUOUS
  0
ARC
  8
WHITE
 10
-36.243042
 20
1113.304789
 30
0.000000
 40
11.142470
 50
90.174070
 51
105.972340
  6
CONTINUOUS
  0
ARC
  8
WHITE
 10
-36.184418
 20
1114.978732
 30
0.000000
 40
9.468927
 50
72.117889
 51
90.559574
  6
CONTINUOUS
  0
ARC
  8
WHITE
 10
-35.757466
 20
1116.485095
 30
0.000000
 40
7.904436
 50
56.123449
 51
71.710393
  6
CONTINUOUS
  0
ARC
  8
WHITE
 10
-34.575324
 20
1117.979675
 30
0.000000
 40
6.006476
 50
27.092395
 51
57.538944
  6
CONTINUOUS
  0
ARC
  8
WHITE
 10
-35.863234
 20
1117.549225
 30
0.000000
 40
7.351919
 50
-1.381778
 51
25.507574
  6
CONTINUOUS
  0
ARC
  8
WHITE
 10
-35.829061
 20
1117.307767
 30
0.000000
 40
7.315890
 50
-15.430884
 51
0.502580
  6
CONTINUOUS
  0
ARC
  8
WHITE
 10
-34.293107
 20
1116.911140
 30
0.000000
 40
5.729832
 50
-44.221649
 51
-15.694379
  6
CONTINUOUS
  0
ARC
  8
WHITE
 10
-39.196660
 20
1121.928977
 30
0.000000
 40
12.744785
 50
-61.720965
 51
-45.013375
  6
CONTINUOUS
  0
ARC
  8
WHITE
 10
-35.578129
 20
1100.278590
 30
0.000000
 40
10.703726
 50
61.939290
 51
76.935714
  6
CONTINUOUS
  0
ARC
  8
WHITE
 10
-33.447538
 20
1104.158640
 30
0.000000
 40
6.277773
 50
30.182366
 51
62.440695
  6
CONTINUOUS
  0
ARC
  8
WHITE
 10
-34.240647
 20
1103.968129
 30
0.000000
 40
7.063019
 50
-1.521912
 51
28.283340
  6
CONTINUOUS
  0
ARC
  8
WHITE
 10
-36.025650
 20
1103.671285
 30
0.000000
 40
8.846205
 50
-22.670215
 51
0.707656
  6
CONTINUOUS
  0
ARC
  8
WHITE
 10
-36.009747
 20
1103.912273
 30
0.000000
 40
8.927339
 50
-58.521865
 51
-24.136883
  6
CONTINUOUS
  0
ARC
  8
WHITE
 10
-36.349912
 20
1104.379189
 30
0.000000
 40
9.503281
 50
-90.986042
 51
-58.242744
  6
CONTINUOUS
  0
ARC
  8
WHITE
 10
-36.449085
 20
1105.371823
 30
0.000000
 40
10.494705
 50
-106.150414
 51
-90.351417
  6
CONTINUOUS
  0
ARC
  8
WHITE
 10
-35.147682
 20
1109.824756
 30
0.000000
 40
15.133905
 50
-118.566637
 51
-106.193633
  6
CONTINUOUS
  0
LINE
  8
WHITE
 10
-42.384420
 20
1096.533229
 30
0.000000
 11
-42.384420
 21
1101.135380
 31
0.000000
  6
CONTINUOUS
  0
ARC
  8
WHITE
 10
-34.251287
 20
1111.012166
 30
0.000000
 40
12.794482
 50
-129.470073
 51
-114.232704
  6
CONTINUOUS
  0
ARC
  8
WHITE
 10
-36.728389
 20
1105.485632
 30
0.000000
 40
6.738209
 50
-114.313444
 51
-90.915349
  6
CONTINUOUS
  0
ARC
  8
WHITE
 10
-36.768176
 20
1104.574694
 30
0.000000
 40
5.826806
 50
-90.667269
 51
-69.283758
  6
CONTINUOUS
  0
ARC
  8
WHITE
 10
-36.547589
 20
1103.915126
 30
0.000000
 40
5.131924
 50
-68.982406
 51
1.138575
  6
CONTINUOUS
  0
ARC
  8
WHITE
 10
-36.066842
 20
1104.099388
 30
0.000000
 40
4.650892
 50
-1.013789
 51
22.977423
  6
CONTINUOUS
  0
ARC
  8
WHITE
 10
-35.470941
 20
1104.232609
 30
0.000000
 40
4.051758
 50
24.532699
 51
64.097271
  6
CONTINUOUS
  0
ARC
  8
WHITE
 10
-36.311697
 20
1102.645448
 30
0.000000
 40
5.847087
 50
63.480433
 51
79.014019
  6
CONTINUOUS
  0
ARC
  8
WHITE
 10
-36.956320
 20
1099.352081
 30
0.000000
 40
9.202945
 50
78.981664
 51
90.456117
  6
CONTINUOUS
  0
LINE
  8
WHITE
 10
-37.029582
 20
1108.554734
 30
0.000000
 11
-39.674743
 21
1108.554734
 31
0.000000
  6
CONTINUOUS
  0
LINE
  8
WHITE
 10
-39.674743
 20
1108.554734
 30
0.000000
 11
-39.674743
 21
1112.124627
 31
0.000000
  6
CONTINUOUS
  0
LINE
  8
WHITE
 10
-39.674743
 20
1112.124627
 30
0.000000
 11
-38.104851
 21
1112.124627
 31
0.000000
  6
CONTINUOUS
  0
ARC
  8
WHITE
 10
-37.995704
 20
1119.592004
 30
0.000000
 40
7.468175
 50
-90.837402
 51
-73.363214
  6
CONTINUOUS
  0
ARC
  8
WHITE
 10
-37.162956
 20
1116.843686
 30
0.000000
 40
4.596499
 50
-73.500770
 51
-37.524095
  6
CONTINUOUS
  0
ARC
  8
WHITE
 10
-36.910035
 20
1116.527705
 30
0.000000
 40
4.204554
 50
-36.208263
 51
1.540745
  6
CONTINUOUS
  0
ARC
  8
WHITE
 10
-37.072501
 20
1116.715247
 30
0.000000
 40
4.366135
 50
-0.977576
 51
21.424843
  6
CONTINUOUS
  0
ARC
  8
WHITE
 10
-36.316740
 20
1116.918278
 30
0.000000
 40
3.589492
 50
22.814692
 51
60.485499
  6
CONTINUOUS
  0
ARC
  8
WHITE
 10
-36.786641
 20
1116.165284
 30
0.000000
 40
4.476425
 50
59.999569
 51
91.182795
  6
CONTINUOUS
  0
ARC
  8
WHITE
 10
-36.755556
 20
1114.190145
 30
0.000000
 40
6.451793
 50
91.096713
 51
115.201022
  6
CONTINUOUS
  0
ARC
  8
WHITE
 10
-33.976322
 20
1108.189084
 30
0.000000
 40
13.065117
 50
115.023327
 51
130.057286
  6
CONTINUOUS
  0
LINE
  8
WHITE
 10
-42.384420
 20
1118.189143
 30
0.000000
 11
-42.384420
 21
1122.726777
 31
0.000000
  6
CONTINUOUS
  0
ARC
  8
WHITE
 10
21.066156
 20
908.825324
 30
0.000000
 40
14.359475
 50
106.093430
 51
119.430505
  6
CONTINUOUS
  0
ARC
  8
WHITE
 10
20.151755
 20
911.909754
 30
0.000000
 40
11.142470
 50
90.174070
 51
105.972340
  6
CONTINUOUS
  0
ARC
  8
WHITE
 10
20.210379
 20
913.583697
 30
0.000000
 40
9.468927
 50
72.117889
 51
90.559574
  6
CONTINUOUS
  0
ARC
  8
WHITE
 10
20.637331
 20
915.090060
 30
0.000000
 40
7.904436
 50
56.123449
 51
71.710393
  6
CONTINUOUS
  0
ARC
  8
WHITE
 10
21.819473
 20
916.584640
 30
0.000000
 40
6.006476
 50
27.092395
 51
57.538944
  6
CONTINUOUS
  0
ARC
  8
WHITE
 10
20.531563
 20
916.154190
 30
0.000000
 40
7.351919
 50
-1.381778
 51
25.507574
  6
CONTINUOUS
  0
ARC
  8
WHITE
 10
20.565736
 20
915.912732
 30
0.000000
 40
7.315890
 50
-15.430884
 51
0.502580
  6
CONTINUOUS
  0
ARC
  8
WHITE
 10
22.101690
 20
915.516105
 30
0.000000
 40
5.729832
 50
-44.221649
 51
-15.694379
  6
CONTINUOUS
  0
ARC
  8
WHITE
 10
17.198137
 20
920.533942
 30
0.000000
 40
12.744785
 50
-61.720965
 51
-45.013375
  6
CONTINUOUS
  0
ARC
  8
WHITE
 10
20.816668
 20
898.883555
 30
0.000000
 40
10.703726
 50
61.939290
 51
76.935714
  6
CONTINUOUS
  0
ARC
  8
WHITE
 10
22.947259
 20
902.763605
 30
0.000000
 40
6.277773
 50
30.182366
 51
62.440695
  6
CONTINUOUS
  0
ARC
  8
WHITE
 10
22.154150
 20
902.573094
 30
0.000000
 40
7.063019
 50
-1.521912
 51
28.283340
  6
CONTINUOUS
  0
ARC
  8
WHITE
 10
20.369147
 20
902.276250
 30
0.000000
 40
8.846205
 50
-22.670215
 51
0.707656
  6
CONTINUOUS
  0
ARC
  8
WHITE
 10
20.385050
 20
902.517238
 30
0.000000
 40
8.927339
 50
-58.521865
 51
-24.136883
  6
CONTINUOUS
  0
ARC
  8
WHITE
 10
20.044885
 20
902.984154
 30
0.000000
 40
9.503281
 50
-90.986042
 51
-58.242744
  6
CONTINUOUS
  0
ARC
  8
WHITE
 10
19.945712
 20
903.976788
 30
0.000000
 40
10.494705
 50
-106.150414
 51
-90.351417
  6
CONTINUOUS
  0
ARC
  8
WHITE
 10
21.247115
 20
908.429721
 30
0.000000
 40
15.133905
 50
-118.566637
 51
-106.193633
  6
CONTINUOUS
  0
LINE
  8
WHITE
 10
14.010376
 20
895.138194
 30
0.000000
 11
14.010376
 21
899.740345
 31
0.000000
  6
CONTINUOUS
  0
ARC
  8
WHITE
 10
22.143510
 20
909.617131
 30
0.000000
 40
12.794482
 50
-129.470073
 51
-114.232704
  6
CONTINUOUS
  0
ARC
  8
WHITE
 10
19.666408
 20
904.090597
 30
0.000000
 40
6.738209
 50
-114.313444
 51
-90.915349
  6
CONTINUOUS
  0
ARC
  8
WHITE
 10
19.626621
 20
903.179659
 30
0.000000
 40
5.826806
 50
-90.667269
 51
-69.283758
  6
CONTINUOUS
  0
ARC
  8
WHITE
 10
19.847208
 20
902.520091
 30
0.000000
 40
5.131924
 50
-68.982406
 51
1.138575
  6
CONTINUOUS
  0
ARC
  8
WHITE
 10
20.327955
 20
902.704353
 30
0.000000
 40
4.650892
 50
-1.013789
 51
22.977423
  6
CONTINUOUS
  0
ARC
  8
WHITE
 10
20.923855
 20
902.837574
 30
0.000000
 40
4.051758
 50
24.532699
 51
64.097271
  6
CONTINUOUS
  0
ARC
  8
WHITE
 10
20.083100
 20
901.250413
 30
0.000000
 40
5.847087
 50
63.480433
 51
79.014019
  6
CONTINUOUS
  0
ARC
  8
WHITE
 10
19.438477
 20
897.957046
 30
0.000000
 40
9.202945
 50
78.981664
 51
90.456117
  6
CONTINUOUS
  0
LINE
  8
WHITE
 10
19.365215
 20
907.159699
 30
0.000000
 11
16.720054
 21
907.159699
 31
0.000000
  6
CONTINUOUS
  0
LINE
  8
WHITE
 10
16.720054
 20
907.159699
 30
0.000000
 11
16.720054
 21
910.729592
 31
0.000000
  6
CONTINUOUS
  0
LINE
  8
WHITE
 10
16.720054
 20
910.729592
 30
0.000000
 11
18.289946
 21
910.729592
 31
0.000000
  6
CONTINUOUS
  0
ARC
  8
WHITE
 10
18.399093
 20
918.196969
 30
0.000000
 40
7.468175
 50
-90.837402
 51
-73.363214
  6
CONTINUOUS
  0
ARC
  8
WHITE
 10
19.231841
 20
915.448651
 30
0.000000
 40
4.596499
 50
-73.500770
 51
-37.524095
  6
CONTINUOUS
  0
ARC
  8
WHITE
 10
19.484762
 20
915.132670
 30
0.000000
 40
4.204554
 50
-36.208263
 51
1.540745
  6
CONTINUOUS
  0
ARC
  8
WHITE
 10
19.322296
 20
915.320212
 30
0.000000
 40
4.366135
 50
-0.977576
 51
21.424843
  6
CONTINUOUS
  0
ARC
  8
WHITE
 10
20.078057
 20
915.523243
 30
0.000000
 40
3.589492
 50
22.814692
 51
60.485499
  6
CONTINUOUS
  0
ARC
  8
WHITE
 10
19.608156
 20
914.770249
 30
0.000000
 40
4.476425
 50
59.999569
 51
91.182795
  6
CONTINUOUS
  0
ARC
  8
WHITE
 10
19.639241
 20
912.795110
 30
0.000000
 40
6.451793
 50
91.096713
 51
115.201022
  6
CONTINUOUS
  0
ARC
  8
WHITE
 10
22.418475
 20
906.794049
 30
0.000000
 40
13.065117
 50
115.023327
 51
130.057286
  6
CONTINUOUS
  0
LINE
  8
WHITE
 10
14.010376
 20
916.794108
 30
0.000000
 11
14.010376
 21
921.331742
 31
0.000000
  6
CONTINUOUS
  0
ARC
  8
WHITE
 10
182.827640
 20
934.603889
 30
0.000000
 40
14.359475
 50
106.093430
 51
119.430505
  6
CONTINUOUS
  0
ARC
  8
WHITE
 10
181.913239
 20
937.688319
 30
0.000000
 40
11.142470
 50
90.174070
 51
105.972340
  6
CONTINUOUS
  0
ARC
  8
WHITE
 10
181.971864
 20
939.362261
 30
0.000000
 40
9.468927
 50
72.117889
 51
90.559574
  6
CONTINUOUS
  0
ARC
  8
WHITE
 10
182.398816
 20
940.868625
 30
0.000000
 40
7.904436
 50
56.123449
 51
71.710393
  6
CONTINUOUS
  0
ARC
  8
WHITE
 10
183.580957
 20
942.363204
 30
0.000000
 40
6.006476
 50
27.092395
 51
57.538944
  6
CONTINUOUS
  0
ARC
  8
WHITE
 10
182.293047
 20
941.932754
 30
0.000000
 40
7.351919
 50
-1.381778
 51
25.507574
  6
CONTINUOUS
  0
ARC
  8
WHITE
 10
182.327220
 20
941.691296
 30
0.000000
 40
7.315890
 50
-15.430884
 51
0.502580
  6
CONTINUOUS
  0
ARC
  8
WHITE
 10
183.863174
 20
941.294669
 30
0.000000
 40
5.729832
 50
-44.221649
 51
-15.694379
  6
CONTINUOUS
  0
ARC
  8
WHITE
 10
178.959621
 20
946.312506
 30
0.000000
 40
12.744785
 50
-61.720965
 51
-45.013375
  6
CONTINUOUS
  0
ARC
  8
WHITE
 10
182.578153
 20
924.662120
 30
0.000000
 40
10.703726
 50
61.939290
 51
76.935714
  6
CONTINUOUS
  0
ARC
  8
WHITE
 10
184.708744
 20
928.542170
 30
0.000000
 40
6.277773
 50
30.182366
 51
62.440695
  6
CONTINUOUS
  0
ARC
  8
WHITE
 10
183.915634
 20
928.351659
 30
0.000000
 40
7.063019
 50
-1.521912
 51
28.283340
  6
CONTINUOUS
  0
ARC
  8
WHITE
 10
182.130631
 20
928.054814
 30
0.000000
 40
8.846205
 50
-22.670215
 51
0.707656
  6
CONTINUOUS
  0
ARC
  8
WHITE
 10
182.146534
 20
928.295803
 30
0.000000
 40
8.927339
 50
-58.521865
 51
-24.136883
  6
CONTINUOUS
  0
ARC
  8
WHITE
 10
181.806369
 20
928.762718
 30
0.000000
 40
9.503281
 50
-90.986042
 51
-58.242744
  6
CONTINUOUS
  0
ARC
  8
WHITE
 10
181.707196
 20
929.755352
 30
0.000000
 40
10.494705
 50
-106.150414
 51
-90.351417
  6
CONTINUOUS
  0
ARC
  8
WHITE
 10
183.008600
 20
934.208286
 30
0.000000
 40
15.133905
 50
-118.566637
 51
-106.193633
  6
CONTINUOUS
  0
LINE
  8
WHITE
 10
175.771861
 20
920.916759
 30
0.000000
 11
175.771861
 21
925.518909
 31
0.000000
  6
CONTINUOUS
  0
ARC
  8
WHITE
 10
183.904994
 20
935.395696
 30
0.000000
 40
12.794482
 50
-129.470073
 51
-114.232704
  6
CONTINUOUS
  0
ARC
  8
WHITE
 10
181.427892
 20
929.869161
 30
0.000000
 40
6.738209
 50
-114.313444
 51
-90.915349
  6
CONTINUOUS
  0
ARC
  8
WHITE
 10
181.388106
 20
928.958224
 30
0.000000
 40
5.826806
 50
-90.667269
 51
-69.283758
  6
CONTINUOUS
  0
ARC
  8
WHITE
 10
181.608692
 20
928.298655
 30
0.000000
 40
5.131924
 50
-68.982406
 51
1.138575
  6
CONTINUOUS
  0
ARC
  8
WHITE
 10
182.089439
 20
928.482918
 30
0.000000
 40
4.650892
 50
-1.013789
 51
22.977423
  6
CONTINUOUS
  0
ARC
  8
WHITE
 10
182.685340
 20
928.616138
 30
0.000000
 40
4.051758
 50
24.532699
 51
64.097271
  6
CONTINUOUS
  0
ARC
  8
WHITE
 10
181.844584
 20
927.028977
 30
0.000000
 40
5.847087
 50
63.480433
 51
79.014019
  6
CONTINUOUS
  0
ARC
  8
WHITE
 10
181.199961
 20
923.735610
 30
0.000000
 40
9.202945
 50
78.981664
 51
90.456117
  6
CONTINUOUS
  0
LINE
  8
WHITE
 10
181.126699
 20
932.938264
 30
0.000000
 11
178.481538
 21
932.938264
 31
0.000000
  6
CONTINUOUS
  0
LINE
  8
WHITE
 10
178.481538
 20
932.938264
 30
0.000000
 11
178.481538
 21
936.508156
 31
0.000000
  6
CONTINUOUS
  0
LINE
  8
WHITE
 10
178.481538
 20
936.508156
 30
0.000000
 11
180.051431
 21
936.508156
 31
0.000000
  6
CONTINUOUS
  0
ARC
  8
WHITE
 10
180.160577
 20
943.975534
 30
0.000000
 40
7.468175
 50
-90.837402
 51
-73.363214
  6
CONTINUOUS
  0
ARC
  8
WHITE
 10
180.993325
 20
941.227216
 30
0.000000
 40
4.596499
 50
-73.500770
 51
-37.524095
  6
CONTINUOUS
  0
ARC
  8
WHITE
 10
181.246246
 20
940.911234
 30
0.000000
 40
4.204554
 50
-36.208263
 51
1.540745
  6
CONTINUOUS
  0
ARC
  8
WHITE
 10
181.083780
 20
941.098776
 30
0.000000
 40
4.366135
 50
-0.977576
 51
21.424843
  6
CONTINUOUS
  0
ARC
  8
WHITE
 10
181.839541
 20
941.301808
 30
0.000000
 40
3.589492
 50
22.814692
 51
60.485499
  6
CONTINUOUS
  0
ARC
  8
WHITE
 10
181.369640
 20
940.548814
 30
0.000000
 40
4.476425
 50
59.999569
 51
91.182795
  6
CONTINUOUS
  0
ARC
  8
WHITE
 10
181.400725
 20
938.573675
 30
0.000000
 40
6.451793
 50
91.096713
 51
115.201022
  6
CONTINUOUS
  0
ARC
  8
WHITE
 10
184.179959
 20
932.572614
 30
0.000000
 40
13.065117
 50
115.023327
 51
130.057286
  6
CONTINUOUS
  0
LINE
  8
WHITE
 10
175.771861
 20
942.572673
 30
0.000000
 11
175.771861
 21
947.110307
 31
0.000000
  6
CONTINUOUS
  0
ARC
  8
WHITE
 10
202.803970
 20
929.755352
 30
0.000000
 40
10.494705
 50
-106.150414
 51
-90.351417
  6
CONTINUOUS
  0
ARC
  8
WHITE
 10
204.105374
 20
934.208286
 30
0.000000
 40
15.133905
 50
-118.566637
 51
-106.193633
  6
CONTINUOUS
  0
LINE
  8
WHITE
 10
196.868635
 20
920.916759
 30
0.000000
 11
196.868635
 21
925.518909
 31
0.000000
  6
CONTINUOUS
  0
ARC
  8
WHITE
 10
205.001769
 20
935.395696
 30
0.000000
 40
12.794482
 50
-129.470073
 51
-114.232704
  6
CONTINUOUS
  0
ARC
  8
WHITE
 10
202.524666
 20
929.869161
 30
0.000000
 40
6.738209
 50
-114.313444
 51
-90.915349
  6
CONTINUOUS
  0
ARC
  8
WHITE
 10
202.484880
 20
928.958224
 30
0.000000
 40
5.826806
 50
-90.667269
 51
-69.283758
  6
CONTINUOUS
  0
ARC
  8
WHITE
 10
202.705466
 20
928.298655
 30
0.000000
 40
5.131924
 50
-68.982406
 51
1.138575
  6
CONTINUOUS
  0
ARC
  8
WHITE
 10
203.186213
 20
928.482918
 30
0.000000
 40
4.650892
 50
-1.013789
 51
22.977423
  6
CONTINUOUS
  0
ARC
  8
WHITE
 10
203.782114
 20
928.616138
 30
0.000000
 40
4.051758
 50
24.532699
 51
64.097271
  6
CONTINUOUS
  0
ARC
  8
WHITE
 10
202.941359
 20
927.028977
 30
0.000000
 40
5.847087
 50
63.480433
 51
79.014019
  6
CONTINUOUS
  0
ARC
  8
WHITE
 10
202.296735
 20
923.735610
 30
0.000000
 40
9.202945
 50
78.981664
 51
90.456117
  6
CONTINUOUS
  0
LINE
  8
WHITE
 10
202.223474
 20
932.938264
 30
0.000000
 11
199.578312
 21
932.938264
 31
0.000000
  6
CONTINUOUS
  0
LINE
  8
WHITE
 10
199.578312
 20
932.938264
 30
0.000000
 11
199.578312
 21
936.508156
 31
0.000000
  6
CONTINUOUS
  0
LINE
  8
WHITE
 10
199.578312
 20
936.508156
 30
0.000000
 11
201.148205
 21
936.508156
 31
0.000000
  6
CONTINUOUS
  0
ARC
  8
WHITE
 10
201.257352
 20
943.975534
 30
0.000000
 40
7.468175
 50
-90.837402
 51
-73.363214
  6
CONTINUOUS
  0
ARC
  8
WHITE
 10
202.090100
 20
941.227216
 30
0.000000
 40
4.596499
 50
-73.500770
 51
-37.524095
  6
CONTINUOUS
  0
ARC
  8
WHITE
 10
202.343020
 20
940.911234
 30
0.000000
 40
4.204554
 50
-36.208263
 51
1.540745
  6
CONTINUOUS
  0
ARC
  8
WHITE
 10
202.180555
 20
941.098776
 30
0.000000
 40
4.366135
 50
-0.977576
 51
21.424843
  6
CONTINUOUS
  0
ARC
  8
WHITE
 10
202.936315
 20
941.301808
 30
0.000000
 40
3.589492
 50
22.814692
 51
60.485499
  6
CONTINUOUS
  0
ARC
  8
WHITE
 10
202.466415
 20
940.548814
 30
0.000000
 40
4.476425
 50
59.999569
 51
91.182795
  6
CONTINUOUS
  0
ARC
  8
WHITE
 10
202.497499
 20
938.573675
 30
0.000000
 40
6.451793
 50
91.096713
 51
115.201022
  6
CONTINUOUS
  0
ARC
  8
WHITE
 10
205.276733
 20
932.572614
 30
0.000000
 40
13.065117
 50
115.023327
 51
130.057286
  6
CONTINUOUS
  0
LINE
  8
WHITE
 10
196.868635
 20
942.572673
 30
0.000000
 11
196.868635
 21
947.110307
 31
0.000000
  6
CONTINUOUS
  0
ARC
  8
WHITE
 10
203.924415
 20
934.603889
 30
0.000000
 40
14.359475
 50
106.093430
 51
119.430505
  6
CONTINUOUS
  0
ARC
  8
WHITE
 10
203.010014
 20
937.688319
 30
0.000000
 40
11.142470
 50
90.174070
 51
105.972340
  6
CONTINUOUS
  0
ARC
  8
WHITE
 10
203.068638
 20
939.362261
 30
0.000000
 40
9.468927
 50
72.117889
 51
90.559574
  6
CONTINUOUS
  0
ARC
  8
WHITE
 10
203.495590
 20
940.868625
 30
0.000000
 40
7.904436
 50
56.123449
 51
71.710393
  6
CONTINUOUS
  0
ARC
  8
WHITE
 10
204.677732
 20
942.363204
 30
0.000000
 40
6.006476
 50
27.092395
 51
57.538944
  6
CONTINUOUS
  0
ARC
  8
WHITE
 10
203.389821
 20
941.932754
 30
0.000000
 40
7.351919
 50
-1.381778
 51
25.507574
  6
CONTINUOUS
  0
ARC
  8
WHITE
 10
203.423994
 20
941.691296
 30
0.000000
 40
7.315890
 50
-15.430884
 51
0.502580
  6
CONTINUOUS
  0
ARC
  8
WHITE
 10
204.959948
 20
941.294669
 30
0.000000
 40
5.729832
 50
-44.221649
 51
-15.694379
  6
CONTINUOUS
  0
ARC
  8
WHITE
 10
200.056395
 20
946.312506
 30
0.000000
 40
12.744785
 50
-61.720965
 51
-45.013375
  6
CONTINUOUS
  0
ARC
  8
WHITE
 10
203.674927
 20
924.662120
 30
0.000000
 40
10.703726
 50
61.939290
 51
76.935714
  6
CONTINUOUS
  0
ARC
  8
WHITE
 10
205.805518
 20
928.542170
 30
0.000000
 40
6.277773
 50
30.182366
 51
62.440695
  6
CONTINUOUS
  0
ARC
  8
WHITE
 10
205.012409
 20
928.351659
 30
0.000000
 40
7.063019
 50
-1.521912
 51
28.283340
  6
CONTINUOUS
  0
ARC
  8
WHITE
 10
203.227405
 20
928.054814
 30
0.000000
 40
8.846205
 50
-22.670215
 51
0.707656
  6
CONTINUOUS
  0
ARC
  8
WHITE
 10
203.243309
 20
928.295803
 30
0.000000
 40
8.927339
 50
-58.521865
 51
-24.136883
  6
CONTINUOUS
  0
ARC
  8
WHITE
 10
202.903143
 20
928.762718
 30
0.000000
 40
9.503281
 50
-90.986042
 51
-58.242744
  6
CONTINUOUS
  0
ARC
  8
WHITE
 10
396.553113
 20
707.430289
 30
0.000000
 40
14.359475
 50
106.093430
 51
119.430505
  6
CONTINUOUS
  0
ARC
  8
WHITE
 10
395.638712
 20
710.514719
 30
0.000000
 40
11.142470
 50
90.174070
 51
105.972340
  6
CONTINUOUS
  0
ARC
  8
WHITE
 10
395.697336
 20
712.188662
 30
0.000000
 40
9.468927
 50
72.117889
 51
90.559574
  6
CONTINUOUS
  0
ARC
  8
WHITE
 10
396.124288
 20
713.695025
 30
0.000000
 40
7.904436
 50
56.123449
 51
71.710393
  6
CONTINUOUS
  0
ARC
  8
WHITE
 10
397.306430
 20
715.189605
 30
0.000000
 40
6.006476
 50
27.092395
 51
57.538944
  6
CONTINUOUS
  0
ARC
  8
WHITE
 10
396.018519
 20
714.759155
 30
0.000000
 40
7.351919
 50
-1.381778
 51
25.507574
  6
CONTINUOUS
  0
ARC
  8
WHITE
 10
396.052693
 20
714.517697
 30
0.000000
 40
7.315890
 50
-15.430884
 51
0.502580
  6
CONTINUOUS
  0
ARC
  8
WHITE
 10
397.588647
 20
714.121070
 30
0.000000
 40
5.729832
 50
-44.221649
 51
-15.694379
  6
CONTINUOUS
  0
ARC
  8
WHITE
 10
392.685094
 20
719.138907
 30
0.000000
 40
12.744785
 50
-61.720965
 51
-45.013375
  6
CONTINUOUS
  0
ARC
  8
WHITE
 10
396.303625
 20
697.488520
 30
0.000000
 40
10.703726
 50
61.939290
 51
76.935714
  6
CONTINUOUS
  0
ARC
  8
WHITE
 10
398.434216
 20
701.368570
 30
0.000000
 40
6.277773
 50
30.182366
 51
62.440695
  6
CONTINUOUS
  0
ARC
  8
WHITE
 10
397.641107
 20
701.178059
 30
0.000000
 40
7.063019
 50
-1.521912
 51
28.283340
  6
CONTINUOUS
  0
ARC
  8
WHITE
 10
395.856104
 20
700.881215
 30
0.000000
 40
8.846205
 50
-22.670215
 51
0.707656
  6
CONTINUOUS
  0
ARC
  8
WHITE
 10
395.872007
 20
701.122203
 30
0.000000
 40
8.927339
 50
-58.521865
 51
-24.136883
  6
CONTINUOUS
  0
ARC
  8
WHITE
 10
395.531841
 20
701.589119
 30
0.000000
 40
9.503281
 50
-90.986042
 51
-58.242744
  6
CONTINUOUS
  0
ARC
  8
WHITE
 10
395.432669
 20
702.581753
 30
0.000000
 40
10.494705
 50
-106.150414
 51
-90.351417
  6
CONTINUOUS
  0
ARC
  8
WHITE
 10
396.734072
 20
707.034686
 30
0.000000
 40
15.133905
 50
-118.566637
 51
-106.193633
  6
CONTINUOUS
  0
LINE
  8
WHITE
 10
389.497333
 20
693.743159
 30
0.000000
 11
389.497333
 21
698.345310
 31
0.000000
  6
CONTINUOUS
  0
ARC
  8
WHITE
 10
397.630467
 20
708.222096
 30
0.000000
 40
12.794482
 50
-129.470073
 51
-114.232704
  6
CONTINUOUS
  0
ARC
  8
WHITE
 10
395.153364
 20
702.695562
 30
0.000000
 40
6.738209
 50
-114.313444
 51
-90.915349
  6
CONTINUOUS
  0
ARC
  8
WHITE
 10
395.113578
 20
701.784624
 30
0.000000
 40
5.826806
 50
-90.667269
 51
-69.283758
  6
CONTINUOUS
  0
ARC
  8
WHITE
 10
395.334164
 20
701.125056
 30
0.000000
 40
5.131924
 50
-68.982406
 51
1.138575
  6
CONTINUOUS
  0
ARC
  8
WHITE
 10
395.814911
 20
701.309318
 30
0.000000
 40
4.650892
 50
-1.013789
 51
22.977423
  6
CONTINUOUS
  0
ARC
  8
WHITE
 10
396.410812
 20
701.442539
 30
0.000000
 40
4.051758
 50
24.532699
 51
64.097271
  6
CONTINUOUS
  0
ARC
  8
WHITE
 10
395.570057
 20
699.855378
 30
0.000000
 40
5.847087
 50
63.480433
 51
79.014019
  6
CONTINUOUS
  0
ARC
  8
WHITE
 10
394.925433
 20
696.562011
 30
0.000000
 40
9.202945
 50
78.981664
 51
90.456117
  6
CONTINUOUS
  0
LINE
  8
WHITE
 10
394.852172
 20
705.764664
 30
0.000000
 11
392.207011
 21
705.764664
 31
0.000000
  6
CONTINUOUS
  0
LINE
  8
WHITE
 10
392.207011
 20
705.764664
 30
0.000000
 11
392.207011
 21
709.334557
 31
0.000000
  6
CONTINUOUS
  0
LINE
  8
WHITE
 10
392.207011
 20
709.334557
 30
0.000000
 11
393.776903
 21
709.334557
 31
0.000000
  6
CONTINUOUS
  0
ARC
  8
WHITE
 10
393.886050
 20
716.801934
 30
0.000000
 40
7.468175
 50
-90.837402
 51
-73.363214
  6
CONTINUOUS
  0
ARC
  8
WHITE
 10
394.718798
 20
714.053616
 30
0.000000
 40
4.596499
 50
-73.500770
 51
-37.524095
  6
CONTINUOUS
  0
ARC
  8
WHITE
 10
394.971718
 20
713.737635
 30
0.000000
 40
4.204554
 50
-36.208263
 51
1.540745
  6
CONTINUOUS
  0
ARC
  8
WHITE
 10
394.809253
 20
713.925177
 30
0.000000
 40
4.366135
 50
-0.977576
 51
21.424843
  6
CONTINUOUS
  0
ARC
  8
WHITE
 10
395.565014
 20
714.128208
 30
0.000000
 40
3.589492
 50
22.814692
 51
60.485499
  6
CONTINUOUS
  0
ARC
  8
WHITE
 10
395.095113
 20
713.375214
 30
0.000000
 40
4.476425
 50
59.999569
 51
91.182795
  6
CONTINUOUS
  0
ARC
  8
WHITE
 10
395.126197
 20
711.400075
 30
0.000000
 40
6.451793
 50
91.096713
 51
115.201022
  6
CONTINUOUS
  0
ARC
  8
WHITE
 10
397.905431
 20
705.399014
 30
0.000000
 40
13.065117
 50
115.023327
 51
130.057286
  6
CONTINUOUS
  0
LINE
  8
WHITE
 10
389.497333
 20
715.399073
 30
0.000000
 11
389.497333
 21
719.936707
 31
0.000000
  6
CONTINUOUS
  0
ARC
  8
WHITE
 10
734.631145
 20
798.146693
 30
0.000000
 40
14.359475
 50
106.093430
 51
119.430505
  6
CONTINUOUS
  0
ARC
  8
WHITE
 10
733.716744
 20
801.231123
 30
0.000000
 40
11.142470
 50
90.174070
 51
105.972340
  6
CONTINUOUS
  0
ARC
  8
WHITE
 10
733.775369
 20
802.905066
 30
0.000000
 40
9.468927
 50
72.117889
 51
90.559574
  6
CONTINUOUS
  0
ARC
  8
WHITE
 10
734.202321
 20
804.411429
 30
0.000000
 40
7.904436
 50
56.123449
 51
71.710393
  6
CONTINUOUS
  0
ARC
  8
WHITE
 10
735.384462
 20
805.906009
 30
0.000000
 40
6.006476
 50
27.092395
 51
57.538944
  6
CONTINUOUS
  0
ARC
  8
WHITE
 10
734.096552
 20
805.475559
 30
0.000000
 40
7.351919
 50
-1.381778
 51
25.507574
  6
CONTINUOUS
  0
ARC
  8
WHITE
 10
734.130725
 20
805.234101
 30
0.000000
 40
7.315890
 50
-15.430884
 51
0.502580
  6
CONTINUOUS
  0
ARC
  8
WHITE
 10
735.666679
 20
804.837474
 30
0.000000
 40
5.729832
 50
-44.221649
 51
-15.694379
  6
CONTINUOUS
  0
ARC
  8
WHITE
 10
730.763126
 20
809.855311
 30
0.000000
 40
12.744785
 50
-61.720965
 51
-45.013375
  6
CONTINUOUS
  0
ARC
  8
WHITE
 10
734.381657
 20
788.204924
 30
0.000000
 40
10.703726
 50
61.939290
 51
76.935714
  6
CONTINUOUS
  0
ARC
  8
WHITE
 10
736.512249
 20
792.084974
 30
0.000000
 40
6.277773
 50
30.182366
 51
62.440695
  6
CONTINUOUS
  0
ARC
  8
WHITE
 10
735.719139
 20
791.894463
 30
0.000000
 40
7.063019
 50
-1.521912
 51
28.283340
  6
CONTINUOUS
  0
ARC
  8
WHITE
 10
733.934136
 20
791.597619
 30
0.000000
 40
8.846205
 50
-22.670215
 51
0.707656
  6
CONTINUOUS
  0
ARC
  8
WHITE
 10
733.950039
 20
791.838607
 30
0.000000
 40
8.927339
 50
-58.521865
 51
-24.136883
  6
CONTINUOUS
  0
ARC
  8
WHITE
 10
733.609874
 20
792.305523
 30
0.000000
 40
9.503281
 50
-90.986042
 51
-58.242744
  6
CONTINUOUS
  0
ARC
  8
WHITE
 10
733.510701
 20
793.298156
 30
0.000000
 40
10.494705
 50
-106.150414
 51
-90.351417
  6
CONTINUOUS
  0
ARC
  8
WHITE
 10
734.812105
 20
797.751090
 30
0.000000
 40
15.133905
 50
-118.566637
 51
-106.193633
  6
CONTINUOUS
  0
LINE
  8
WHITE
 10
727.575366
 20
784.459563
 30
0.000000
 11
727.575366
 21
789.061714
 31
0.000000
  6
CONTINUOUS
  0
ARC
  8
WHITE
 10
735.708499
 20
798.938500
 30
0.000000
 40
12.794482
 50
-129.470073
 51
-114.232704
  6
CONTINUOUS
  0
ARC
  8
WHITE
 10
733.231397
 20
793.411966
 30
0.000000
 40
6.738209
 50
-114.313444
 51
-90.915349
  6
CONTINUOUS
  0
ARC
  8
WHITE
 10
733.191610
 20
792.501028
 30
0.000000
 40
5.826806
 50
-90.667269
 51
-69.283758
  6
CONTINUOUS
  0
ARC
  8
WHITE
 10
733.412197
 20
791.841460
 30
0.000000
 40
5.131924
 50
-68.982406
 51
1.138575
  6
CONTINUOUS
  0
ARC
  8
WHITE
 10
733.892944
 20
792.025722
 30
0.000000
 40
4.650892
 50
-1.013789
 51
22.977423
  6
CONTINUOUS
  0
ARC
  8
WHITE
 10
734.488845
 20
792.158943
 30
0.000000
 40
4.051758
 50
24.532699
 51
64.097271
  6
CONTINUOUS
  0
ARC
  8
WHITE
 10
733.648089
 20
790.571782
 30
0.000000
 40
5.847087
 50
63.480433
 51
79.014019
  6
CONTINUOUS
  0
ARC
  8
WHITE
 10
733.003466
 20
787.278415
 30
0.000000
 40
9.202945
 50
78.981664
 51
90.456117
  6
CONTINUOUS
  0
LINE
  8
WHITE
 10
732.930204
 20
796.481068
 30
0.000000
 11
730.285043
 21
796.481068
 31
0.000000
  6
CONTINUOUS
  0
LINE
  8
WHITE
 10
730.285043
 20
796.481068
 30
0.000000
 11
730.285043
 21
800.050961
 31
0.000000
  6
CONTINUOUS
  0
LINE
  8
WHITE
 10
730.285043
 20
800.050961
 30
0.000000
 11
731.854936
 21
800.050961
 31
0.000000
  6
CONTINUOUS
  0
ARC
  8
WHITE
 10
731.964082
 20
807.518338
 30
0.000000
 40
7.468175
 50
-90.837402
 51
-73.363214
  6
CONTINUOUS
  0
ARC
  8
WHITE
 10
732.796830
 20
804.770020
 30
0.000000
 40
4.596499
 50
-73.500770
 51
-37.524095
  6
CONTINUOUS
  0
ARC
  8
WHITE
 10
733.049751
 20
804.454039
 30
0.000000
 40
4.204554
 50
-36.208263
 51
1.540745
  6
CONTINUOUS
  0
ARC
  8
WHITE
 10
732.887285
 20
804.641581
 30
0.000000
 40
4.366135
 50
-0.977576
 51
21.424843
  6
CONTINUOUS
  0
ARC
  8
WHITE
 10
733.643046
 20
804.844612
 30
0.000000
 40
3.589492
 50
22.814692
 51
60.485499
  6
CONTINUOUS
  0
ARC
  8
WHITE
 10
733.173145
 20
804.091618
 30
0.000000
 40
4.476425
 50
59.999569
 51
91.182795
  6
CONTINUOUS
  0
ARC
  8
WHITE
 10
733.204230
 20
802.116479
 30
0.000000
 40
6.451793
 50
91.096713
 51
115.201022
  6
CONTINUOUS
  0
ARC
  8
WHITE
 10
735.983464
 20
796.115418
 30
0.000000
 40
13.065117
 50
115.023327
 51
130.057286
  6
CONTINUOUS
  0
LINE
  8
WHITE
 10
727.575366
 20
806.115477
 30
0.000000
 11
727.575366
 21
810.653111
 31
0.000000
  6
CONTINUOUS
  0
ARC
  8
WHITE
 10
1201.997012
 20
861.296096
 30
0.000000
 40
14.359475
 50
106.093430
 51
119.430505
  6
CONTINUOUS
  0
ARC
  8
WHITE
 10
1201.082611
 20
864.380526
 30
0.000000
 40
11.142470
 50
90.174070
 51
105.972340
  6
CONTINUOUS
  0
ARC
  8
WHITE
 10
1201.141235
 20
866.054469
 30
0.000000
 40
9.468927
 50
72.117889
 51
90.559574
  6
CONTINUOUS
  0
ARC
  8
WHITE
 10
1201.568187
 20
867.560832
 30
0.000000
 40
7.904436
 50
56.123449
 51
71.710393
  6
CONTINUOUS
  0
ARC
  8
WHITE
 10
1202.750329
 20
869.055411
 30
0.000000
 40
6.006476
 50
27.092395
 51
57.538944
  6
CONTINUOUS
  0
ARC
  8
WHITE
 10
1201.462418
 20
868.624961
 30
0.000000
 40
7.351919
 50
-1.381778
 51
25.507574
  6
CONTINUOUS
  0
ARC
  8
WHITE
 10
1201.496592
 20
868.383504
 30
0.000000
 40
7.315890
 50
-15.430884
 51
0.502580
  6
CONTINUOUS
  0
ARC
  8
WHITE
 10
1203.032545
 20
867.986877
 30
0.000000
 40
5.729832
 50
-44.221649
 51
-15.694379
  6
CONTINUOUS
  0
ARC
  8
WHITE
 10
1198.128993
 20
873.004714
 30
0.000000
 40
12.744785
 50
-61.720965
 51
-45.013375
  6
CONTINUOUS
  0
ARC
  8
WHITE
 10
1201.747524
 20
851.354327
 30
0.000000
 40
10.703726
 50
61.939290
 51
76.935714
  6
CONTINUOUS
  0
ARC
  8
WHITE
 10
1203.878115
 20
855.234377
 30
0.000000
 40
6.277773
 50
30.182366
 51
62.440695
  6
CONTINUOUS
  0
ARC
  8
WHITE
 10
1203.085006
 20
855.043866
 30
0.000000
 40
7.063019
 50
-1.521912
 51
28.283340
  6
CONTINUOUS
  0
ARC
  8
WHITE
 10
1201.300003
 20
854.747022
 30
0.000000
 40
8.846205
 50
-22.670215
 51
0.707656
  6
CONTINUOUS
  0
ARC
  8
WHITE
 10
1201.315906
 20
854.988010
 30
0.000000
 40
8.927339
 50
-58.521865
 51
-24.136883
  6
CONTINUOUS
  0
ARC
  8
WHITE
 10
1200.975740
 20
855.454926
 30
0.000000
 40
9.503281
 50
-90.986042
 51
-58.242744
  6
CONTINUOUS
  0
ARC
  8
WHITE
 10
1200.876567
 20
856.447559
 30
0.000000
 40
10.494705
 50
-106.150414
 51
-90.351417
  6
CONTINUOUS
  0
ARC
  8
WHITE
 10
1202.177971
 20
860.900493
 30
0.000000
 40
15.133905
 50
-118.566637
 51
-106.193633
  6
CONTINUOUS
  0
LINE
  8
WHITE
 10
1194.941232
 20
847.608966
 30
0.000000
 11
1194.941232
 21
852.211116
 31
0.000000
  6
CONTINUOUS
  0
ARC
  8
WHITE
 10
1203.074366
 20
862.087903
 30
0.000000
 40
12.794482
 50
-129.470073
 51
-114.232704
  6
CONTINUOUS
  0
ARC
  8
WHITE
 10
1200.597263
 20
856.561369
 30
0.000000
 40
6.738209
 50
-114.313444
 51
-90.915349
  6
CONTINUOUS
  0
ARC
  8
WHITE
 10
1200.557477
 20
855.650431
 30
0.000000
 40
5.826806
 50
-90.667269
 51
-69.283758
  6
CONTINUOUS
  0
ARC
  8
WHITE
 10
1200.778063
 20
854.990862
 30
0.000000
 40
5.131924
 50
-68.982406
 51
1.138575
  6
CONTINUOUS
  0
ARC
  8
WHITE
 10
1201.258810
 20
855.175125
 30
0.000000
 40
4.650892
 50
-1.013789
 51
22.977423
  6
CONTINUOUS
  0
ARC
  8
WHITE
 10
1201.854711
 20
855.308346
 30
0.000000
 40
4.051758
 50
24.532699
 51
64.097271
  6
CONTINUOUS
  0
ARC
  8
WHITE
 10
1201.013956
 20
853.721184
 30
0.000000
 40
5.847087
 50
63.480433
 51
79.014019
  6
CONTINUOUS
  0
ARC
  8
WHITE
 10
1200.369332
 20
850.427818
 30
0.000000
 40
9.202945
 50
78.981664
 51
90.456117
  6
CONTINUOUS
  0
LINE
  8
WHITE
 10
1200.296071
 20
859.630471
 30
0.000000
 11
1197.650909
 21
859.630471
 31
0.000000
  6
CONTINUOUS
  0
LINE
  8
WHITE
 10
1197.650909
 20
859.630471
 30
0.000000
 11
1197.650909
 21
863.200364
 31
0.000000
  6
CONTINUOUS
  0
LINE
  8
WHITE
 10
1197.650909
 20
863.200364
 30
0.000000
 11
1199.220802
 21
863.200364
 31
0.000000
  6
CONTINUOUS
  0
ARC
  8
WHITE
 10
1199.329949
 20
870.667741
 30
0.000000
 40
7.468175
 50
-90.837402
 51
-73.363214
  6
CONTINUOUS
  0
ARC
  8
WHITE
 10
1200.162697
 20
867.919423
 30
0.000000
 40
4.596499
 50
-73.500770
 51
-37.524095
  6
CONTINUOUS
  0
ARC
  8
WHITE
 10
1200.415617
 20
867.603441
 30
0.000000
 40
4.204554
 50
-36.208263
 51
1.540745
  6
CONTINUOUS
  0
ARC
  8
WHITE
 10
1200.253152
 20
867.790984
 30
0.000000
 40
4.366135
 50
-0.977576
 51
21.424843
  6
CONTINUOUS
  0
ARC
  8
WHITE
 10
1201.008912
 20
867.994015
 30
0.000000
 40
3.589492
 50
22.814692
 51
60.485499
  6
CONTINUOUS
  0
ARC
  8
WHITE
 10
1200.539012
 20
867.241021
 30
0.000000
 40
4.476425
 50
59.999569
 51
91.182795
  6
CONTINUOUS
  0
ARC
  8
WHITE
 10
1200.570096
 20
865.265882
 30
0.000000
 40
6.451793
 50
91.096713
 51
115.201022
  6
CONTINUOUS
  0
ARC
  8
WHITE
 10
1203.349330
 20
859.264821
 30
0.000000
 40
13.065117
 50
115.023327
 51
130.057286
  6
CONTINUOUS
  0
LINE
  8
WHITE
 10
1194.941232
 20
869.264880
 30
0.000000
 11
1194.941232
 21
873.802514
 31
0.000000
  6
CONTINUOUS
  0
ARC
  8
WHITE
 10
1434.054977
 20
-1.150948
 30
0.000000
 40
9.202945
 50
78.981664
 51
90.456117
  6
CONTINUOUS
  0
LINE
  8
WHITE
 10
1433.981716
 20
8.051705
 30
0.000000
 11
1431.336554
 21
8.051705
 31
0.000000
  6
CONTINUOUS
  0
LINE
  8
WHITE
 10
1431.336554
 20
8.051705
 30
0.000000
 11
1431.336554
 21
11.621598
 31
0.000000
  6
CONTINUOUS
  0
LINE
  8
WHITE
 10
1431.336554
 20
11.621598
 30
0.000000
 11
1432.906447
 21
11.621598
 31
0.000000
  6
CONTINUOUS
  0
ARC
  8
WHITE
 10
1433.015593
 20
19.088975
 30
0.000000
 40
7.468175
 50
-90.837402
 51
-73.363214
  6
CONTINUOUS
  0
ARC
  8
WHITE
 10
1433.848342
 20
16.340657
 30
0.000000
 40
4.596499
 50
-73.500770
 51
-37.524095
  6
CONTINUOUS
  0
ARC
  8
WHITE
 10
1434.101262
 20
16.024675
 30
0.000000
 40
4.204554
 50
-36.208263
 51
1.540745
  6
CONTINUOUS
  0
ARC
  8
WHITE
 10
1433.938797
 20
16.212218
 30
0.000000
 40
4.366135
 50
-0.977576
 51
21.424843
  6
CONTINUOUS
  0
ARC
  8
WHITE
 10
1434.694557
 20
16.415249
 30
0.000000
 40
3.589492
 50
22.814692
 51
60.485499
  6
CONTINUOUS
  0
ARC
  8
WHITE
 10
1434.224656
 20
15.662255
 30
0.000000
 40
4.476425
 50
59.999569
 51
91.182795
  6
CONTINUOUS
  0
ARC
  8
WHITE
 10
1434.255741
 20
13.687116
 30
0.000000
 40
6.451793
 50
91.096713
 51
115.201022
  6
CONTINUOUS
  0
ARC
  8
WHITE
 10
1437.034975
 20
7.686055
 30
0.000000
 40
13.065117
 50
115.023327
 51
130.057286
  6
CONTINUOUS
  0
LINE
  8
WHITE
 10
1428.626877
 20
17.686114
 30
0.000000
 11
1428.626877
 21
22.223748
 31
0.000000
  6
CONTINUOUS
  0
ARC
  8
WHITE
 10
1435.682656
 20
9.717330
 30
0.000000
 40
14.359475
 50
106.093430
 51
119.430505
  6
CONTINUOUS
  0
ARC
  8
WHITE
 10
1434.768255
 20
12.801760
 30
0.000000
 40
11.142470
 50
90.174070
 51
105.972340
  6
CONTINUOUS
  0
ARC
  8
WHITE
 10
1434.826880
 20
14.475703
 30
0.000000
 40
9.468927
 50
72.117889
 51
90.559574
  6
CONTINUOUS
  0
ARC
  8
WHITE
 10
1435.253832
 20
15.982066
 30
0.000000
 40
7.904436
 50
56.123449
 51
71.710393
  6
CONTINUOUS
  0
ARC
  8
WHITE
 10
1436.435973
 20
17.476645
 30
0.000000
 40
6.006476
 50
27.092395
 51
57.538944
  6
CONTINUOUS
  0
ARC
  8
WHITE
 10
1435.148063
 20
17.046195
 30
0.000000
 40
7.351919
 50
-1.381778
 51
25.507574
  6
CONTINUOUS
  0
ARC
  8
WHITE
 10
1435.182236
 20
16.804738
 30
0.000000
 40
7.315890
 50
-15.430884
 51
0.502580
  6
CONTINUOUS
  0
ARC
  8
WHITE
 10
1436.718190
 20
16.408111
 30
0.000000
 40
5.729832
 50
-44.221649
 51
-15.694379
  6
CONTINUOUS
  0
ARC
  8
WHITE
 10
1431.814637
 20
21.425948
 30
0.000000
 40
12.744785
 50
-61.720965
 51
-45.013375
  6
CONTINUOUS
  0
ARC
  8
WHITE
 10
1435.433169
 20
-0.224439
 30
0.000000
 40
10.703726
 50
61.939290
 51
76.935714
  6
CONTINUOUS
  0
ARC
  8
WHITE
 10
1437.563760
 20
3.655611
 30
0.000000
 40
6.277773
 50
30.182366
 51
62.440695
  6
CONTINUOUS
  0
ARC
  8
WHITE
 10
1436.770650
 20
3.465100
 30
0.000000
 40
7.063019
 50
-1.521912
 51
28.283340
  6
CONTINUOUS
  0
ARC
  8
WHITE
 10
1434.985647
 20
3.168256
 30
0.000000
 40
8.846205
 50
-22.670215
 51
0.707656
  6
CONTINUOUS
  0
ARC
  8
WHITE
 10
1435.001551
 20
3.409244
 30
0.000000
 40
8.927339
 50
-58.521865
 51
-24.136883
  6
CONTINUOUS
  0
ARC
  8
WHITE
 10
1434.661385
 20
3.876160
 30
0.000000
 40
9.503281
 50
-90.986042
 51
-58.242744
  6
CONTINUOUS
  0
ARC
  8
WHITE
 10
1434.562212
 20
4.868793
 30
0.000000
 40
10.494705
 50
-106.150414
 51
-90.351417
  6
CONTINUOUS
  0
ARC
  8
WHITE
 10
1435.863616
 20
9.321727
 30
0.000000
 40
15.133905
 50
-118.566637
 51
-106.193633
  6
CONTINUOUS
  0
LINE
  8
WHITE
 10
1428.626877
 20
-3.969800
 30
0.000000
 11
1428.626877
 21
0.632350
 31
0.000000
  6
CONTINUOUS
  0
ARC
  8
WHITE
 10
1436.760010
 20
10.509137
 30
0.000000
 40
12.794482
 50
-129.470073
 51
-114.232704
  6
CONTINUOUS
  0
ARC
  8
WHITE
 10
1434.282908
 20
4.982603
 30
0.000000
 40
6.738209
 50
-114.313444
 51
-90.915349
  6
CONTINUOUS
  0
ARC
  8
WHITE
 10
1434.243122
 20
4.071665
 30
0.000000
 40
5.826806
 50
-90.667269
 51
-69.283758
  6
CONTINUOUS
  0
ARC
  8
WHITE
 10
1434.463708
 20
3.412096
 30
0.000000
 40
5.131924
 50
-68.982406
 51
1.138575
  6
CONTINUOUS
  0
ARC
  8
WHITE
 10
1434.944455
 20
3.596359
 30
0.000000
 40
4.650892
 50
-1.013789
 51
22.977423
  6
CONTINUOUS
  0
ARC
  8
WHITE
 10
1435.540356
 20
3.729580
 30
0.000000
 40
4.051758
 50
24.532699
 51
64.097271
  6
CONTINUOUS
  0
ARC
  8
WHITE
 10
1434.699600
 20
2.142418
 30
0.000000
 40
5.847087
 50
63.480433
 51
79.014019
  6
CONTINUOUS
  0
ARC
  8
WHITE
 10
2000.764823
 20
193.470160
 30
0.000000
 40
14.359475
 50
106.093430
 51
119.430505
  6
CONTINUOUS
  0
ARC
  8
WHITE
 10
1999.850422
 20
196.554590
 30
0.000000
 40
11.142470
 50
90.174070
 51
105.972340
  6
CONTINUOUS
  0
ARC
  8
WHITE
 10
1999.909047
 20
198.228533
 30
0.000000
 40
9.468927
 50
72.117889
 51
90.559574
  6
CONTINUOUS
  0
ARC
  8
WHITE
 10
2000.335999
 20
199.734896
 30
0.000000
 40
7.904436
 50
56.123449
 51
71.710393
  6
CONTINUOUS
  0
ARC
  8
WHITE
 10
2001.518140
 20
201.229475
 30
0.000000
 40
6.006476
 50
27.092395
 51
57.538944
  6
CONTINUOUS
  0
ARC
  8
WHITE
 10
2000.230230
 20
200.799025
 30
0.000000
 40
7.351919
 50
-1.381778
 51
25.507574
  6
CONTINUOUS
  0
ARC
  8
WHITE
 10
2000.264403
 20
200.557568
 30
0.000000
 40
7.315890
 50
-15.430884
 51
0.502580
  6
CONTINUOUS
  0
ARC
  8
WHITE
 10
2001.800357
 20
200.160941
 30
0.000000
 40
5.729832
 50
-44.221649
 51
-15.694379
  6
CONTINUOUS
  0
ARC
  8
WHITE
 10
1996.896804
 20
205.178778
 30
0.000000
 40
12.744785
 50
-61.720965
 51
-45.013375
  6
CONTINUOUS
  0
ARC
  8
WHITE
 10
2000.515336
 20
183.528391
 30
0.000000
 40
10.703726
 50
61.939290
 51
76.935714
  6
CONTINUOUS
  0
ARC
  8
WHITE
 10
2002.645927
 20
187.408441
 30
0.000000
 40
6.277773
 50
30.182366
 51
62.440695
  6
CONTINUOUS
  0
ARC
  8
WHITE
 10
2001.852817
 20
187.217930
 30
0.000000
 40
7.063019
 50
-1.521912
 51
28.283340
  6
CONTINUOUS
  0
ARC
  8
WHITE
 10
2000.067814
 20
186.921086
 30
0.000000
 40
8.846205
 50
-22.670215
 51
0.707656
  6
CONTINUOUS
  0
ARC
  8
WHITE
 10
2000.083717
 20
187.162074
 30
0.000000
 40
8.927339
 50
-58.521865
 51
-24.136883
  6
CONTINUOUS
  0
ARC
  8
WHITE
 10
1999.743552
 20
187.628990
 30
0.000000
 40
9.503281
 50
-90.986042
 51
-58.242744
  6
CONTINUOUS
  0
ARC
  8
WHITE
 10
1999.644379
 20
188.621623
 30
0.000000
 40
10.494705
 50
-106.150414
 51
-90.351417
  6
CONTINUOUS
  0
ARC
  8
WHITE
 10
2000.945783
 20
193.074557
 30
0.000000
 40
15.133905
 50
-118.566637
 51
-106.193633
  6
CONTINUOUS
  0
LINE
  8
WHITE
 10
1993.709044
 20
179.783030
 30
0.000000
 11
1993.709044
 21
184.385180
 31
0.000000
  6
CONTINUOUS
  0
ARC
  8
WHITE
 10
2001.842177
 20
194.261967
 30
0.000000
 40
12.794482
 50
-129.470073
 51
-114.232704
  6
CONTINUOUS
  0
ARC
  8
WHITE
 10
1999.365075
 20
188.735433
 30
0.000000
 40
6.738209
 50
-114.313444
 51
-90.915349
  6
CONTINUOUS
  0
ARC
  8
WHITE
 10
1999.325289
 20
187.824495
 30
0.000000
 40
5.826806
 50
-90.667269
 51
-69.283758
  6
CONTINUOUS
  0
ARC
  8
WHITE
 10
1999.545875
 20
187.164926
 30
0.000000
 40
5.131924
 50
-68.982406
 51
1.138575
  6
CONTINUOUS
  0
ARC
  8
WHITE
 10
2000.026622
 20
187.349189
 30
0.000000
 40
4.650892
 50
-1.013789
 51
22.977423
  6
CONTINUOUS
  0
ARC
  8
WHITE
 10
2000.622523
 20
187.482410
 30
0.000000
 40
4.051758
 50
24.532699
 51
64.097271
  6
CONTINUOUS
  0
ARC
  8
WHITE
 10
1999.781767
 20
185.895248
 30
0.000000
 40
5.847087
 50
63.480433
 51
79.014019
  6
CONTINUOUS
  0
ARC
  8
WHITE
 10
1999.137144
 20
182.601882
 30
0.000000
 40
9.202945
 50
78.981664
 51
90.456117
  6
CONTINUOUS
  0
LINE
  8
WHITE
 10
1999.063882
 20
191.804535
 30
0.000000
 11
1996.418721
 21
191.804535
 31
0.000000
  6
CONTINUOUS
  0
LINE
  8
WHITE
 10
1996.418721
 20
191.804535
 30
0.000000
 11
1996.418721
 21
195.374428
 31
0.000000
  6
CONTINUOUS
  0
LINE
  8
WHITE
 10
1996.418721
 20
195.374428
 30
0.000000
 11
1997.988614
 21
195.374428
 31
0.000000
  6
CONTINUOUS
  0
ARC
  8
WHITE
 10
1998.097760
 20
202.841805
 30
0.000000
 40
7.468175
 50
-90.837402
 51
-73.363214
  6
CONTINUOUS
  0
ARC
  8
WHITE
 10
1998.930508
 20
200.093487
 30
0.000000
 40
4.596499
 50
-73.500770
 51
-37.524095
  6
CONTINUOUS
  0
ARC
  8
WHITE
 10
1999.183429
 20
199.777505
 30
0.000000
 40
4.204554
 50
-36.208263
 51
1.540745
  6
CONTINUOUS
  0
ARC
  8
WHITE
 10
1999.020964
 20
199.965048
 30
0.000000
 40
4.366135
 50
-0.977576
 51
21.424843
  6
CONTINUOUS
  0
ARC
  8
WHITE
 10
1999.776724
 20
200.168079
 30
0.000000
 40
3.589492
 50
22.814692
 51
60.485499
  6
CONTINUOUS
  0
ARC
  8
WHITE
 10
1999.306823
 20
199.415085
 30
0.000000
 40
4.476425
 50
59.999569
 51
91.182795
  6
CONTINUOUS
  0
ARC
  8
WHITE
 10
1999.337908
 20
197.439946
 30
0.000000
 40
6.451793
 50
91.096713
 51
115.201022
  6
CONTINUOUS
  0
ARC
  8
WHITE
 10
2002.117142
 20
191.438885
 30
0.000000
 40
13.065117
 50
115.023327
 51
130.057286
  6
CONTINUOUS
  0
LINE
  8
WHITE
 10
1993.709044
 20
201.438944
 30
0.000000
 11
1993.709044
 21
205.976578
 31
0.000000
  6
CONTINUOUS
  0
ARC
  8
WHITE
 10
2479.914003
 20
1187.695460
 30
0.000000
 40
5.131924
 50
-68.982406
 51
1.138575
  6
CONTINUOUS
  0
ARC
  8
WHITE
 10
2480.394750
 20
1187.879723
 30
0.000000
 40
4.650892
 50
-1.013789
 51
22.977423
  6
CONTINUOUS
  0
ARC
  8
WHITE
 10
2480.990651
 20
1188.012944
 30
0.000000
 40
4.051758
 50
24.532699
 51
64.097271
  6
CONTINUOUS
  0
ARC
  8
WHITE
 10
2480.149895
 20
1186.425782
 30
0.000000
 40
5.847087
 50
63.480433
 51
79.014019
  6
CONTINUOUS
  0
ARC
  8
WHITE
 10
2479.505272
 20
1183.132415
 30
0.000000
 40
9.202945
 50
78.981664
 51
90.456117
  6
CONTINUOUS
  0
LINE
  8
WHITE
 10
2479.432010
 20
1192.335069
 30
0.000000
 11
2476.786849
 21
1192.335069
 31
0.000000
  6
CONTINUOUS
  0
LINE
  8
WHITE
 10
2476.786849
 20
1192.335069
 30
0.000000
 11
2476.786849
 21
1195.904962
 31
0.000000
  6
CONTINUOUS
  0
LINE
  8
WHITE
 10
2476.786849
 20
1195.904962
 30
0.000000
 11
2478.356742
 21
1195.904962
 31
0.000000
  6
CONTINUOUS
  0
ARC
  8
WHITE
 10
2478.465888
 20
1203.372339
 30
0.000000
 40
7.468175
 50
-90.837402
 51
-73.363214
  6
CONTINUOUS
  0
ARC
  8
WHITE
 10
2479.298636
 20
1200.624021
 30
0.000000
 40
4.596499
 50
-73.500770
 51
-37.524095
  6
CONTINUOUS
  0
ARC
  8
WHITE
 10
2479.551557
 20
1200.308039
 30
0.000000
 40
4.204554
 50
-36.208263
 51
1.540745
  6
CONTINUOUS
  0
ARC
  8
WHITE
 10
2479.389091
 20
1200.495582
 30
0.000000
 40
4.366135
 50
-0.977576
 51
21.424843
  6
CONTINUOUS
  0
ARC
  8
WHITE
 10
2480.144852
 20
1200.698613
 30
0.000000
 40
3.589492
 50
22.814692
 51
60.485499
  6
CONTINUOUS
  0
ARC
  8
WHITE
 10
2479.674951
 20
1199.945619
 30
0.000000
 40
4.476425
 50
59.999569
 51
91.182795
  6
CONTINUOUS
  0
ARC
  8
WHITE
 10
2479.706036
 20
1197.970480
 30
0.000000
 40
6.451793
 50
91.096713
 51
115.201022
  6
CONTINUOUS
  0
ARC
  8
WHITE
 10
2482.485270
 20
1191.969419
 30
0.000000
 40
13.065117
 50
115.023327
 51
130.057286
  6
CONTINUOUS
  0
LINE
  8
WHITE
 10
2474.077172
 20
1201.969478
 30
0.000000
 11
2474.077172
 21
1206.507112
 31
0.000000
  6
CONTINUOUS
  0
ARC
  8
WHITE
 10
2481.132951
 20
1194.000694
 30
0.000000
 40
14.359475
 50
106.093430
 51
119.430505
  6
CONTINUOUS
  0
ARC
  8
WHITE
 10
2480.218550
 20
1197.085124
 30
0.000000
 40
11.142470
 50
90.174070
 51
105.972340
  6
CONTINUOUS
  0
ARC
  8
WHITE
 10
2480.277175
 20
1198.759067
 30
0.000000
 40
9.468927
 50
72.117889
 51
90.559574
  6
CONTINUOUS
  0
ARC
  8
WHITE
 10
2480.704127
 20
1200.265430
 30
0.000000
 40
7.904436
 50
56.123449
 51
71.710393
  6
CONTINUOUS
  0
ARC
  8
WHITE
 10
2481.886268
 20
1201.760009
 30
0.000000
 40
6.006476
 50
27.092395
 51
57.538944
  6
CONTINUOUS
  0
ARC
  8
WHITE
 10
2480.598358
 20
1201.329559
 30
0.000000
 40
7.351919
 50
-1.381778
 51
25.507574
  6
CONTINUOUS
  0
ARC
  8
WHITE
 10
2480.632531
 20
1201.088102
 30
0.000000
 40
7.315890
 50
-15.430884
 51
0.502580
  6
CONTINUOUS
  0
ARC
  8
WHITE
 10
2482.168485
 20
1200.691474
 30
0.000000
 40
5.729832
 50
-44.221649
 51
-15.694379
  6
CONTINUOUS
  0
ARC
  8
WHITE
 10
2477.264932
 20
1205.709312
 30
0.000000
 40
12.744785
 50
-61.720965
 51
-45.013375
  6
CONTINUOUS
  0
ARC
  8
WHITE
 10
2480.883463
 20
1184.058925
 30
0.000000
 40
10.703726
 50
61.939290
 51
76.935714
  6
CONTINUOUS
  0
ARC
  8
WHITE
 10
2483.014054
 20
1187.938975
 30
0.000000
 40
6.277773
 50
30.182366
 51
62.440695
  6
CONTINUOUS
  0
ARC
  8
WHITE
 10
2482.220945
 20
1187.748464
 30
0.000000
 40
7.063019
 50
-1.521912
 51
28.283340
  6
CONTINUOUS
  0
ARC
  8
WHITE
 10
2480.435942
 20
1187.451619
 30
0.000000
 40
8.846205
 50
-22.670215
 51
0.707656
  6
CONTINUOUS
  0
ARC
  8
WHITE
 10
2480.451845
 20
1187.692608
 30
0.000000
 40
8.927339
 50
-58.521865
 51
-24.136883
  6
CONTINUOUS
  0
ARC
  8
WHITE
 10
2480.111680
 20
1188.159524
 30
0.000000
 40
9.503281
 50
-90.986042
 51
-58.242744
  6
CONTINUOUS
  0
ARC
  8
WHITE
 10
2480.012507
 20
1189.152157
 30
0.000000
 40
10.494705
 50
-106.150414
 51
-90.351417
  6
CONTINUOUS
  0
ARC
  8
WHITE
 10
2481.313911
 20
1193.605091
 30
0.000000
 40
15.133905
 50
-118.566637
 51
-106.193633
  6
CONTINUOUS
  0
LINE
  8
WHITE
 10
2474.077172
 20
1180.313564
 30
0.000000
 11
2474.077172
 21
1184.915714
 31
0.000000
  6
CONTINUOUS
  0
ARC
  8
WHITE
 10
2482.210305
 20
1194.792501
 30
0.000000
 40
12.794482
 50
-129.470073
 51
-114.232704
  6
CONTINUOUS
  0
ARC
  8
WHITE
 10
2479.733203
 20
1189.265967
 30
0.000000
 40
6.738209
 50
-114.313444
 51
-90.915349
  6
CONTINUOUS
  0
ARC
  8
WHITE
 10
2479.693416
 20
1188.355029
 30
0.000000
 40
5.826806
 50
-90.667269
 51
-69.283758
  6
CONTINUOUS
  0
LINE
  8
WHITE
 10
308.670207
 20
829.980349
 30
0.000000
 11
325.594938
 21
829.980349
 31
0.000000
  6
CONTINUOUS
  0
LINE
  8
WHITE
 10
325.594938
 20
829.980349
 30
0.000000
 11
325.594938
 21
826.259919
 31
0.000000
  6
CONTINUOUS
  0
LINE
  8
WHITE
 10
325.594938
 20
826.259919
 30
0.000000
 11
315.401390
 21
801.270672
 31
0.000000
  6
CONTINUOUS
  0
LINE
  8
WHITE
 10
315.401390
 20
801.270672
 30
0.000000
 11
310.928272
 21
801.270672
 31
0.000000
  6
CONTINUOUS
  0
LINE
  8
WHITE
 10
310.928272
 20
801.270672
 30
0.000000
 11
321.143325
 21
826.087876
 31
0.000000
  6
CONTINUOUS
  0
LINE
  8
WHITE
 10
321.143325
 20
826.087876
 30
0.000000
 11
308.670207
 21
826.087876
 31
0.000000
  6
CONTINUOUS
  0
LINE
  8
WHITE
 10
308.670207
 20
826.087876
 30
0.000000
 11
308.670207
 21
829.980349
 31
0.000000
  6
CONTINUOUS
  0
LINE
  8
WHITE
 10
1019.657152
 20
873.617104
 30
0.000000
 11
1007.184034
 21
873.617104
 31
0.000000
  6
CONTINUOUS
  0
LINE
  8
WHITE
 10
1007.184034
 20
873.617104
 30
0.000000
 11
1007.184034
 21
877.509577
 31
0.000000
  6
CONTINUOUS
  0
LINE
  8
WHITE
 10
1007.184034
 20
877.509577
 30
0.000000
 11
1024.108765
 21
877.509577
 31
0.000000
  6
CONTINUOUS
  0
LINE
  8
WHITE
 10
1024.108765
 20
877.509577
 30
0.000000
 11
1024.108765
 21
873.789147
 31
0.000000
  6
CONTINUOUS
  0
LINE
  8
WHITE
 10
1024.108765
 20
873.789147
 30
0.000000
 11
1013.915216
 21
848.799900
 31
0.000000
  6
CONTINUOUS
  0
LINE
  8
WHITE
 10
1013.915216
 20
848.799900
 30
0.000000
 11
1009.442098
 21
848.799900
 31
0.000000
  6
CONTINUOUS
  0
LINE
  8
WHITE
 10
1009.442098
 20
848.799900
 30
0.000000
 11
1019.657152
 21
873.617104
 31
0.000000
  6
CONTINUOUS
  0
LINE
  8
WHITE
 10
1933.113767
 20
-3.416064
 30
0.000000
 11
1928.640649
 21
-3.416064
 31
0.000000
  6
CONTINUOUS
  0
LINE
  8
WHITE
 10
1928.640649
 20
-3.416064
 30
0.000000
 11
1938.855703
 21
21.401141
 31
0.000000
  6
CONTINUOUS
  0
LINE
  8
WHITE
 10
1938.855703
 20
21.401141
 30
0.000000
 11
1926.382584
 21
21.401141
 31
0.000000
  6
CONTINUOUS
  0
LINE
  8
WHITE
 10
1926.382584
 20
21.401141
 30
0.000000
 11
1926.382584
 21
25.293614
 31
0.000000
  6
CONTINUOUS
  0
LINE
  8
WHITE
 10
1926.382584
 20
25.293614
 30
0.000000
 11
1943.307316
 21
25.293614
 31
0.000000
  6
CONTINUOUS
  0
LINE
  8
WHITE
 10
1943.307316
 20
25.293614
 30
0.000000
 11
1943.307316
 21
21.573184
 31
0.000000
  6
CONTINUOUS
  0
LINE
  8
WHITE
 10
1943.307316
 20
21.573184
 30
0.000000
 11
1933.113767
 21
-3.416064
 31
0.000000
  6
CONTINUOUS
  0
LINE
  8
WHITE
 10
630.715981
 20
312.797899
 30
0.000000
 11
634.113831
 21
312.797899
 31
0.000000
  6
CONTINUOUS
  0
LINE
  8
WHITE
 10
634.113831
 20
312.797899
 30
0.000000
 11
634.113831
 21
284.088222
 31
0.000000
  6
CONTINUOUS
  0
LINE
  8
WHITE
 10
634.113831
 20
284.088222
 30
0.000000
 11
630.199852
 21
284.088222
 31
0.000000
  6
CONTINUOUS
  0
LINE
  8
WHITE
 10
630.199852
 20
284.088222
 30
0.000000
 11
630.199852
 21
303.916179
 31
0.000000
  6
CONTINUOUS
  0
LINE
  8
WHITE
 10
630.199852
 20
303.916179
 30
0.000000
 11
625.447164
 21
303.916179
 31
0.000000
  6
CONTINUOUS
  0
LINE
  8
WHITE
 10
625.447164
 20
303.916179
 30
0.000000
 11
625.447164
 21
307.335533
 31
0.000000
  6
CONTINUOUS
  0
LINE
  8
WHITE
 10
625.447164
 20
307.335533
 30
0.000000
 11
626.500928
 21
307.335533
 31
0.000000
  6
CONTINUOUS
  0
ARC
  8
WHITE
 10
626.606790
 20
312.935738
 30
0.000000
 40
5.601205
 50
-91.082954
 51
-71.920867
  6
CONTINUOUS
  0
ARC
  8
WHITE
 10
627.362784
 20
310.634740
 30
0.000000
 40
3.179206
 50
-72.003761
 51
-29.740077
  6
CONTINUOUS
  0
ARC
  8
WHITE
 10
626.469883
 20
311.101744
 30
0.000000
 40
4.186330
 50
-29.227580
 51
-11.796593
  6
CONTINUOUS
  0
ARC
  8
WHITE
 10
623.745964
 20
311.677070
 30
0.000000
 40
6.970340
 50
-11.848404
 51
0.551280
  6
CONTINUOUS
  0
LINE
  8
WHITE
 10
630.715981
 20
311.744136
 30
0.000000
 11
630.715981
 21
312.797899
 31
0.000000
  6
CONTINUOUS
  0
LINE
  8
WHITE
 10
680.172260
 20
142.820489
 30
0.000000
 11
683.570110
 21
142.820489
 31
0.000000
  6
CONTINUOUS
  0
LINE
  8
WHITE
 10
683.570110
 20
142.820489
 30
0.000000
 11
683.570110
 21
114.110812
 31
0.000000
  6
CONTINUOUS
  0
LINE
  8
WHITE
 10
683.570110
 20
114.110812
 30
0.000000
 11
679.656131
 21
114.110812
 31
0.000000
  6
CONTINUOUS
  0
LINE
  8
WHITE
 10
679.656131
 20
114.110812
 30
0.000000
 11
679.656131
 21
133.938769
 31
0.000000
  6
CONTINUOUS
  0
LINE
  8
WHITE
 10
679.656131
 20
133.938769
 30
0.000000
 11
674.903443
 21
133.938769
 31
0.000000
  6
CONTINUOUS
  0
LINE
  8
WHITE
 10
674.903443
 20
133.938769
 30
0.000000
 11
674.903443
 21
137.358124
 31
0.000000
  6
CONTINUOUS
  0
LINE
  8
WHITE
 10
674.903443
 20
137.358124
 30
0.000000
 11
675.957207
 21
137.358124
 31
0.000000
  6
CONTINUOUS
  0
ARC
  8
WHITE
 10
676.063069
 20
142.958328
 30
0.000000
 40
5.601205
 50
-91.082954
 51
-71.920867
  6
CONTINUOUS
  0
ARC
  8
WHITE
 10
676.819062
 20
140.657330
 30
0.000000
 40
3.179206
 50
-72.003761
 51
-29.740077
  6
CONTINUOUS
  0
ARC
  8
WHITE
 10
675.926162
 20
141.124334
 30
0.000000
 40
4.186330
 50
-29.227580
 51
-11.796593
  6
CONTINUOUS
  0
ARC
  8
WHITE
 10
673.202243
 20
141.699661
 30
0.000000
 40
6.970340
 50
-11.848404
 51
0.551280
  6
CONTINUOUS
  0
LINE
  8
WHITE
 10
680.172260
 20
141.766726
 30
0.000000
 11
680.172260
 21
142.820489
 31
0.000000
  6
CONTINUOUS
  0
LINE
  8
WHITE
 10
754.801172
 20
803.061714
 30
0.000000
 11
750.048484
 21
803.061714
 31
0.000000
  6
CONTINUOUS
  0
LINE
  8
WHITE
 10
750.048484
 20
803.061714
 30
0.000000
 11
750.048484
 21
806.481068
 31
0.000000
  6
CONTINUOUS
  0
LINE
  8
WHITE
 10
750.048484
 20
806.481068
 30
0.000000
 11
751.102247
 21
806.481068
 31
0.000000
  6
CONTINUOUS
  0
ARC
  8
WHITE
 10
751.208110
 20
812.081273
 30
0.000000
 40
5.601205
 50
-91.082954
 51
-71.920867
  6
CONTINUOUS
  0
ARC
  8
WHITE
 10
751.964103
 20
809.780275
 30
0.000000
 40
3.179206
 50
-72.003761
 51
-29.740077
  6
CONTINUOUS
  0
ARC
  8
WHITE
 10
751.071203
 20
810.247279
 30
0.000000
 40
4.186330
 50
-29.227580
 51
-11.796593
  6
CONTINUOUS
  0
ARC
  8
WHITE
 10
748.347284
 20
810.822605
 30
0.000000
 40
6.970340
 50
-11.848404
 51
0.551280
  6
CONTINUOUS
  0
LINE
  8
WHITE
 10
755.317301
 20
810.889671
 30
0.000000
 11
755.317301
 21
811.943434
 31
0.000000
  6
CONTINUOUS
  0
LINE
  8
WHITE
 10
755.317301
 20
811.943434
 30
0.000000
 11
758.715151
 21
811.943434
 31
0.000000
  6
CONTINUOUS
  0
LINE
  8
WHITE
 10
758.715151
 20
811.943434
 30
0.000000
 11
758.715151
 21
783.233757
 31
0.000000
  6
CONTINUOUS
  0
LINE
  8
WHITE
 10
758.715151
 20
783.233757
 30
0.000000
 11
754.801172
 21
783.233757
 31
0.000000
  6
CONTINUOUS
  0
LINE
  8
WHITE
 10
754.801172
 20
783.233757
 30
0.000000
 11
754.801172
 21
803.061714
 31
0.000000
  6
CONTINUOUS
  0
LINE
  8
WHITE
 10
993.764679
 20
877.509577
 30
0.000000
 11
997.162528
 21
877.509577
 31
0.000000
  6
CONTINUOUS
  0
LINE
  8
WHITE
 10
997.162528
 20
877.509577
 30
0.000000
 11
997.162528
 21
848.799900
 31
0.000000
  6
CONTINUOUS
  0
LINE
  8
WHITE
 10
997.162528
 20
848.799900
 30
0.000000
 11
993.248550
 21
848.799900
 31
0.000000
  6
CONTINUOUS
  0
LINE
  8
WHITE
 10
993.248550
 20
848.799900
 30
0.000000
 11
993.248550
 21
868.627857
 31
0.000000
  6
CONTINUOUS
  0
LINE
  8
WHITE
 10
993.248550
 20
868.627857
 30
0.000000
 11
988.495862
 21
868.627857
 31
0.000000
  6
CONTINUOUS
  0
LINE
  8
WHITE
 10
988.495862
 20
868.627857
 30
0.000000
 11
988.495862
 21
872.047212
 31
0.000000
  6
CONTINUOUS
  0
LINE
  8
WHITE
 10
988.495862
 20
872.047212
 30
0.000000
 11
989.549625
 21
872.047212
 31
0.000000
  6
CONTINUOUS
  0
ARC
  8
WHITE
 10
989.655488
 20
877.647416
 30
0.000000
 40
5.601205
 50
-91.082954
 51
-71.920867
  6
CONTINUOUS
  0
ARC
  8
WHITE
 10
990.411481
 20
875.346418
 30
0.000000
 40
3.179206
 50
-72.003761
 51
-29.740077
  6
CONTINUOUS
  0
ARC
  8
WHITE
 10
989.518581
 20
875.813422
 30
0.000000
 40
4.186330
 50
-29.227580
 51
-11.796593
  6
CONTINUOUS
  0
ARC
  8
WHITE
 10
986.794661
 20
876.388749
 30
0.000000
 40
6.970340
 50
-11.848404
 51
0.551280
  6
CONTINUOUS
  0
LINE
  8
WHITE
 10
993.764679
 20
876.455814
 30
0.000000
 11
993.764679
 21
877.509577
 31
0.000000
  6
CONTINUOUS
  0
LINE
  8
WHITE
 10
995.085517
 20
605.223490
 30
0.000000
 11
998.483366
 21
605.223490
 31
0.000000
  6
CONTINUOUS
  0
LINE
  8
WHITE
 10
998.483366
 20
605.223490
 30
0.000000
 11
998.483366
 21
576.513812
 31
0.000000
  6
CONTINUOUS
  0
LINE
  8
WHITE
 10
998.483366
 20
576.513812
 30
0.000000
 11
994.569388
 21
576.513812
 31
0.000000
  6
CONTINUOUS
  0
LINE
  8
WHITE
 10
994.569388
 20
576.513812
 30
0.000000
 11
994.569388
 21
596.341769
 31
0.000000
  6
CONTINUOUS
  0
LINE
  8
WHITE
 10
994.569388
 20
596.341769
 30
0.000000
 11
989.816699
 21
596.341769
 31
0.000000
  6
CONTINUOUS
  0
LINE
  8
WHITE
 10
989.816699
 20
596.341769
 30
0.000000
 11
989.816699
 21
599.761124
 31
0.000000
  6
CONTINUOUS
  0
LINE
  8
WHITE
 10
989.816699
 20
599.761124
 30
0.000000
 11
990.870463
 21
599.761124
 31
0.000000
  6
CONTINUOUS
  0
ARC
  8
WHITE
 10
990.976326
 20
605.361329
 30
0.000000
 40
5.601205
 50
-91.082954
 51
-71.920867
  6
CONTINUOUS
  0
ARC
  8
WHITE
 10
991.732319
 20
603.060331
 30
0.000000
 40
3.179206
 50
-72.003761
 51
-29.740077
  6
CONTINUOUS
  0
ARC
  8
WHITE
 10
990.839418
 20
603.527335
 30
0.000000
 40
4.186330
 50
-29.227580
 51
-11.796593
  6
CONTINUOUS
  0
ARC
  8
WHITE
 10
988.115499
 20
604.102661
 30
0.000000
 40
6.970340
 50
-11.848404
 51
0.551280
  6
CONTINUOUS
  0
LINE
  8
WHITE
 10
995.085517
 20
604.169726
 30
0.000000
 11
995.085517
 21
605.223490
 31
0.000000
  6
CONTINUOUS
  0
ARC
  8
WHITE
 10
1128.833433
 20
21.295861
 30
0.000000
 40
4.186330
 50
-29.227580
 51
-11.796593
  6
CONTINUOUS
  0
ARC
  8
WHITE
 10
1126.109513
 20
21.871187
 30
0.000000
 40
6.970340
 50
-11.848404
 51
0.551280
  6
CONTINUOUS
  0
LINE
  8
WHITE
 10
1133.079531
 20
21.938252
 30
0.000000
 11
1133.079531
 21
22.992016
 31
0.000000
  6
CONTINUOUS
  0
LINE
  8
WHITE
 10
1133.079531
 20
22.992016
 30
0.000000
 11
1136.477380
 21
22.992016
 31
0.000000
  6
CONTINUOUS
  0
LINE
  8
WHITE
 10
1136.477380
 20
22.992016
 30
0.000000
 11
1136.477380
 21
-5.717662
 31
0.000000
  6
CONTINUOUS
  0
LINE
  8
WHITE
 10
1136.477380
 20
-5.717662
 30
0.000000
 11
1132.563402
 21
-5.717662
 31
0.000000
  6
CONTINUOUS
  0
LINE
  8
WHITE
 10
1132.563402
 20
-5.717662
 30
0.000000
 11
1132.563402
 21
14.110295
 31
0.000000
  6
CONTINUOUS
  0
LINE
  8
WHITE
 10
1132.563402
 20
14.110295
 30
0.000000
 11
1127.810714
 21
14.110295
 31
0.000000
  6
CONTINUOUS
  0
LINE
  8
WHITE
 10
1127.810714
 20
14.110295
 30
0.000000
 11
1127.810714
 21
17.529650
 31
0.000000
  6
CONTINUOUS
  0
LINE
  8
WHITE
 10
1127.810714
 20
17.529650
 30
0.000000
 11
1128.864477
 21
17.529650
 31
0.000000
  6
CONTINUOUS
  0
ARC
  8
WHITE
 10
1128.970340
 20
23.129855
 30
0.000000
 40
5.601205
 50
-91.082954
 51
-71.920867
  6
CONTINUOUS
  0
ARC
  8
WHITE
 10
1129.726333
 20
20.828857
 30
0.000000
 40
3.179206
 50
-72.003761
 51
-29.740077
  6
CONTINUOUS
  0
ARC
  8
WHITE
 10
1147.206288
 20
21.871187
 30
0.000000
 40
6.970340
 50
-11.848404
 51
0.551280
  6
CONTINUOUS
  0
LINE
  8
WHITE
 10
1154.176305
 20
21.938252
 30
0.000000
 11
1154.176305
 21
22.992016
 31
0.000000
  6
CONTINUOUS
  0
LINE
  8
WHITE
 10
1154.176305
 20
22.992016
 30
0.000000
 11
1157.574155
 21
22.992016
 31
0.000000
  6
CONTINUOUS
  0
LINE
  8
WHITE
 10
1157.574155
 20
22.992016
 30
0.000000
 11
1157.574155
 21
-5.717662
 31
0.000000
  6
CONTINUOUS
  0
LINE
  8
WHITE
 10
1157.574155
 20
-5.717662
 30
0.000000
 11
1153.660176
 21
-5.717662
 31
0.000000
  6
CONTINUOUS
  0
LINE
  8
WHITE
 10
1153.660176
 20
-5.717662
 30
0.000000
 11
1153.660176
 21
14.110295
 31
0.000000
  6
CONTINUOUS
  0
LINE
  8
WHITE
 10
1153.660176
 20
14.110295
 30
0.000000
 11
1148.907488
 21
14.110295
 31
0.000000
  6
CONTINUOUS
  0
LINE
  8
WHITE
 10
1148.907488
 20
14.110295
 30
0.000000
 11
1148.907488
 21
17.529650
 31
0.000000
  6
CONTINUOUS
  0
LINE
  8
WHITE
 10
1148.907488
 20
17.529650
 30
0.000000
 11
1149.961251
 21
17.529650
 31
0.000000
  6
CONTINUOUS
  0
ARC
  8
WHITE
 10
1150.067114
 20
23.129855
 30
0.000000
 40
5.601205
 50
-91.082954
 51
-71.920867
  6
CONTINUOUS
  0
ARC
  8
WHITE
 10
1150.823107
 20
20.828857
 30
0.000000
 40
3.179206
 50
-72.003761
 51
-29.740077
  6
CONTINUOUS
  0
ARC
  8
WHITE
 10
1149.930207
 20
21.295861
 30
0.000000
 40
4.186330
 50
-29.227580
 51
-11.796593
  6
CONTINUOUS
  0
LINE
  8
WHITE
 10
1204.944955
 20
360.112074
 30
0.000000
 11
1208.342805
 21
360.112074
 31
0.000000
  6
CONTINUOUS
  0
LINE
  8
WHITE
 10
1208.342805
 20
360.112074
 30
0.000000
 11
1208.342805
 21
331.402396
 31
0.000000
  6
CONTINUOUS
  0
LINE
  8
WHITE
 10
1208.342805
 20
331.402396
 30
0.000000
 11
1204.428826
 21
331.402396
 31
0.000000
  6
CONTINUOUS
  0
LINE
  8
WHITE
 10
1204.428826
 20
331.402396
 30
0.000000
 11
1204.428826
 21
351.230353
 31
0.000000
  6
CONTINUOUS
  0
LINE
  8
WHITE
 10
1204.428826
 20
351.230353
 30
0.000000
 11
1199.676138
 21
351.230353
 31
0.000000
  6
CONTINUOUS
  0
LINE
  8
WHITE
 10
1199.676138
 20
351.230353
 30
0.000000
 11
1199.676138
 21
354.649708
 31
0.000000
  6
CONTINUOUS
  0
LINE
  8
WHITE
 10
1199.676138
 20
354.649708
 30
0.000000
 11
1200.729901
 21
354.649708
 31
0.000000
  6
CONTINUOUS
  0
ARC
  8
WHITE
 10
1200.835764
 20
360.249913
 30
0.000000
 40
5.601205
 50
-91.082954
 51
-71.920867
  6
CONTINUOUS
  0
ARC
  8
WHITE
 10
1201.591757
 20
357.948915
 30
0.000000
 40
3.179206
 50
-72.003761
 51
-29.740077
  6
CONTINUOUS
  0
ARC
  8
WHITE
 10
1200.698857
 20
358.415918
 30
0.000000
 40
4.186330
 50
-29.227580
 51
-11.796593
  6
CONTINUOUS
  0
ARC
  8
WHITE
 10
1197.974938
 20
358.991245
 30
0.000000
 40
6.970340
 50
-11.848404
 51
0.551280
  6
CONTINUOUS
  0
LINE
  8
WHITE
 10
1204.944955
 20
359.058310
 30
0.000000
 11
1204.944955
 21
360.112074
 31
0.000000
  6
CONTINUOUS
  0
ARC
  8
WHITE
 10
1236.822692
 20
1203.692319
 30
0.000000
 40
5.601205
 50
-91.082954
 51
-71.920867
  6
CONTINUOUS
  0
ARC
  8
WHITE
 10
1237.578685
 20
1201.391321
 30
0.000000
 40
3.179206
 50
-72.003761
 51
-29.740077
  6
CONTINUOUS
  0
ARC
  8
WHITE
 10
1236.685785
 20
1201.858325
 30
0.000000
 40
4.186330
 50
-29.227580
 51
-11.796593
  6
CONTINUOUS
  0
ARC
  8
WHITE
 10
1233.961865
 20
1202.433652
 30
0.000000
 40
6.970340
 50
-11.848404
 51
0.551280
  6
CONTINUOUS
  0
LINE
  8
WHITE
 10
1240.931883
 20
1202.500717
 30
0.000000
 11
1240.931883
 21
1203.554480
 31
0.000000
  6
CONTINUOUS
  0
LINE
  8
WHITE
 10
1240.931883
 20
1203.554480
 30
0.000000
 11
1244.329732
 21
1203.554480
 31
0.000000
  6
CONTINUOUS
  0
LINE
  8
WHITE
 10
1244.329732
 20
1203.554480
 30
0.000000
 11
1244.329732
 21
1174.844803
 31
0.000000
  6
CONTINUOUS
  0
LINE
  8
WHITE
 10
1244.329732
 20
1174.844803
 30
0.000000
 11
1240.415754
 21
1174.844803
 31
0.000000
  6
CONTINUOUS
  0
LINE
  8
WHITE
 10
1240.415754
 20
1174.844803
 30
0.000000
 11
1240.415754
 21
1194.672760
 31
0.000000
  6
CONTINUOUS
  0
LINE
  8
WHITE
 10
1240.415754
 20
1194.672760
 30
0.000000
 11
1235.663066
 21
1194.672760
 31
0.000000
  6
CONTINUOUS
  0
LINE
  8
WHITE
 10
1235.663066
 20
1194.672760
 30
0.000000
 11
1235.663066
 21
1198.092115
 31
0.000000
  6
CONTINUOUS
  0
LINE
  8
WHITE
 10
1235.663066
 20
1198.092115
 30
0.000000
 11
1236.716829
 21
1198.092115
 31
0.000000
  6
CONTINUOUS
  0
LINE
  8
WHITE
 10
1414.175264
 20
23.514071
 30
0.000000
 11
1417.573113
 21
23.514071
 31
0.000000
  6
CONTINUOUS
  0
LINE
  8
WHITE
 10
1417.573113
 20
23.514071
 30
0.000000
 11
1417.573113
 21
-5.195607
 31
0.000000
  6
CONTINUOUS
  0
LINE
  8
WHITE
 10
1417.573113
 20
-5.195607
 30
0.000000
 11
1413.659135
 21
-5.195607
 31
0.000000
  6
CONTINUOUS
  0
LINE
  8
WHITE
 10
1413.659135
 20
-5.195607
 30
0.000000
 11
1413.659135
 21
14.632350
 31
0.000000
  6
CONTINUOUS
  0
LINE
  8
WHITE
 10
1413.659135
 20
14.632350
 30
0.000000
 11
1408.906447
 21
14.632350
 31
0.000000
  6
CONTINUOUS
  0
LINE
  8
WHITE
 10
1408.906447
 20
14.632350
 30
0.000000
 11
1408.906447
 21
18.051705
 31
0.000000
  6
CONTINUOUS
  0
LINE
  8
WHITE
 10
1408.906447
 20
18.051705
 30
0.000000
 11
1409.960210
 21
18.051705
 31
0.000000
  6
CONTINUOUS
  0
ARC
  8
WHITE
 10
1410.066073
 20
23.651910
 30
0.000000
 40
5.601205
 50
-91.082954
 51
-71.920867
  6
CONTINUOUS
  0
ARC
  8
WHITE
 10
1410.822066
 20
21.350912
 30
0.000000
 40
3.179206
 50
-72.003761
 51
-29.740077
  6
CONTINUOUS
  0
ARC
  8
WHITE
 10
1409.929166
 20
21.817916
 30
0.000000
 40
4.186330
 50
-29.227580
 51
-11.796593
  6
CONTINUOUS
  0
ARC
  8
WHITE
 10
1407.205246
 20
22.393242
 30
0.000000
 40
6.970340
 50
-11.848404
 51
0.551280
  6
CONTINUOUS
  0
LINE
  8
WHITE
 10
1414.175264
 20
22.460307
 30
0.000000
 11
1414.175264
 21
23.514071
 31
0.000000
  6
CONTINUOUS
  0
LINE
  8
WHITE
 10
1484.534156
 20
215.322702
 30
0.000000
 11
1487.932005
 21
215.322702
 31
0.000000
  6
CONTINUOUS
  0
LINE
  8
WHITE
 10
1487.932005
 20
215.322702
 30
0.000000
 11
1487.932005
 21
186.613025
 31
0.000000
  6
CONTINUOUS
  0
LINE
  8
WHITE
 10
1487.932005
 20
186.613025
 30
0.000000
 11
1484.018027
 21
186.613025
 31
0.000000
  6
CONTINUOUS
  0
LINE
  8
WHITE
 10
1484.018027
 20
186.613025
 30
0.000000
 11
1484.018027
 21
206.440982
 31
0.000000
  6
CONTINUOUS
  0
LINE
  8
WHITE
 10
1484.018027
 20
206.440982
 30
0.000000
 11
1479.265338
 21
206.440982
 31
0.000000
  6
CONTINUOUS
  0
LINE
  8
WHITE
 10
1479.265338
 20
206.440982
 30
0.000000
 11
1479.265338
 21
209.860337
 31
0.000000
  6
CONTINUOUS
  0
LINE
  8
WHITE
 10
1479.265338
 20
209.860337
 30
0.000000
 11
1480.319102
 21
209.860337
 31
0.000000
  6
CONTINUOUS
  0
ARC
  8
WHITE
 10
1480.424965
 20
215.460541
 30
0.000000
 40
5.601205
 50
-91.082954
 51
-71.920867
  6
CONTINUOUS
  0
ARC
  8
WHITE
 10
1481.180958
 20
213.159543
 30
0.000000
 40
3.179206
 50
-72.003761
 51
-29.740077
  6
CONTINUOUS
  0
ARC
  8
WHITE
 10
1480.288058
 20
213.626547
 30
0.000000
 40
4.186330
 50
-29.227580
 51
-11.796593
  6
CONTINUOUS
  0
ARC
  8
WHITE
 10
1477.564138
 20
214.201873
 30
0.000000
 40
6.970340
 50
-11.848404
 51
0.551280
  6
CONTINUOUS
  0
LINE
  8
WHITE
 10
1484.534156
 20
214.268939
 30
0.000000
 11
1484.534156
 21
215.322702
 31
0.000000
  6
CONTINUOUS
  0
LINE
  8
WHITE
 10
1940.718321
 20
871.064936
 30
0.000000
 11
1944.116171
 21
871.064936
 31
0.000000
  6
CONTINUOUS
  0
LINE
  8
WHITE
 10
1944.116171
 20
871.064936
 30
0.000000
 11
1944.116171
 21
842.355259
 31
0.000000
  6
CONTINUOUS
  0
LINE
  8
WHITE
 10
1944.116171
 20
842.355259
 30
0.000000
 11
1940.202192
 21
842.355259
 31
0.000000
  6
CONTINUOUS
  0
LINE
  8
WHITE
 10
1940.202192
 20
842.355259
 30
0.000000
 11
1940.202192
 21
862.183216
 31
0.000000
  6
CONTINUOUS
  0
LINE
  8
WHITE
 10
1940.202192
 20
862.183216
 30
0.000000
 11
1935.449504
 21
862.183216
 31
0.000000
  6
CONTINUOUS
  0
LINE
  8
WHITE
 10
1935.449504
 20
862.183216
 30
0.000000
 11
1935.449504
 21
865.602570
 31
0.000000
  6
CONTINUOUS
  0
LINE
  8
WHITE
 10
1935.449504
 20
865.602570
 30
0.000000
 11
1936.503268
 21
865.602570
 31
0.000000
  6
CONTINUOUS
  0
ARC
  8
WHITE
 10
1936.609130
 20
871.202775
 30
0.000000
 40
5.601205
 50
-91.082954
 51
-71.920867
  6
CONTINUOUS
  0
ARC
  8
WHITE
 10
1937.365123
 20
868.901777
 30
0.000000
 40
3.179206
 50
-72.003761
 51
-29.740077
  6
CONTINUOUS
  0
ARC
  8
WHITE
 10
1936.472223
 20
869.368781
 30
0.000000
 40
4.186330
 50
-29.227580
 51
-11.796593
  6
CONTINUOUS
  0
ARC
  8
WHITE
 10
1933.748304
 20
869.944107
 30
0.000000
 40
6.970340
 50
-11.848404
 51
0.551280
  6
CONTINUOUS
  0
LINE
  8
WHITE
 10
1940.718321
 20
870.011173
 30
0.000000
 11
1940.718321
 21
871.064936
 31
0.000000
  6
CONTINUOUS
  0
LINE
  8
WHITE
 10
2456.601439
 20
698.670786
 30
0.000000
 11
2459.999288
 21
698.670786
 31
0.000000
  6
CONTINUOUS
  0
LINE
  8
WHITE
 10
2459.999288
 20
698.670786
 30
0.000000
 11
2459.999288
 21
669.961109
 31
0.000000
  6
CONTINUOUS
  0
LINE
  8
WHITE
 10
2459.999288
 20
669.961109
 30
0.000000
 11
2456.085310
 21
669.961109
 31
0.000000
  6
CONTINUOUS
  0
LINE
  8
WHITE
 10
2456.085310
 20
669.961109
 30
0.000000
 11
2456.085310
 21
689.789066
 31
0.000000
  6
CONTINUOUS
  0
LINE
  8
WHITE
 10
2456.085310
 20
689.789066
 30
0.000000
 11
2451.332622
 21
689.789066
 31
0.000000
  6
CONTINUOUS
  0
LINE
  8
WHITE
 10
2451.332622
 20
689.789066
 30
0.000000
 11
2451.332622
 21
693.208421
 31
0.000000
  6
CONTINUOUS
  0
LINE
  8
WHITE
 10
2451.332622
 20
693.208421
 30
0.000000
 11
2452.386385
 21
693.208421
 31
0.000000
  6
CONTINUOUS
  0
ARC
  8
WHITE
 10
2452.492248
 20
698.808625
 30
0.000000
 40
5.601205
 50
-91.082954
 51
-71.920867
  6
CONTINUOUS
  0
ARC
  8
WHITE
 10
2453.248241
 20
696.507627
 30
0.000000
 40
3.179206
 50
-72.003761
 51
-29.740077
  6
CONTINUOUS
  0
ARC
  8
WHITE
 10
2452.355341
 20
696.974631
 30
0.000000
 40
4.186330
 50
-29.227580
 51
-11.796593
  6
CONTINUOUS
  0
ARC
  8
WHITE
 10
2449.631421
 20
697.549958
 30
0.000000
 40
6.970340
 50
-11.848404
 51
0.551280
  6
CONTINUOUS
  0
LINE
  8
WHITE
 10
2456.601439
 20
697.617023
 30
0.000000
 11
2456.601439
 21
698.670786
 31
0.000000
  6
CONTINUOUS
  0
LINE
  8
WHITE
 10
2456.622944
 20
221.982397
 30
0.000000
 11
2460.020794
 21
221.982397
 31
0.000000
  6
CONTINUOUS
  0
LINE
  8
WHITE
 10
2460.020794
 20
221.982397
 30
0.000000
 11
2460.020794
 21
193.272720
 31
0.000000
  6
CONTINUOUS
  0
LINE
  8
WHITE
 10
2460.020794
 20
193.272720
 30
0.000000
 11
2456.106815
 21
193.272720
 31
0.000000
  6
CONTINUOUS
  0
LINE
  8
WHITE
 10
2456.106815
 20
193.272720
 30
0.000000
 11
2456.106815
 21
213.100677
 31
0.000000
  6
CONTINUOUS
  0
LINE
  8
WHITE
 10
2456.106815
 20
213.100677
 30
0.000000
 11
2451.354127
 21
213.100677
 31
0.000000
  6
CONTINUOUS
  0
LINE
  8
WHITE
 10
2451.354127
 20
213.100677
 30
0.000000
 11
2451.354127
 21
216.520031
 31
0.000000
  6
CONTINUOUS
  0
LINE
  8
WHITE
 10
2451.354127
 20
216.520031
 30
0.000000
 11
2452.407891
 21
216.520031
 31
0.000000
  6
CONTINUOUS
  0
ARC
  8
WHITE
 10
2452.513753
 20
222.120236
 30
0.000000
 40
5.601205
 50
-91.082954
 51
-71.920867
  6
CONTINUOUS
  0
ARC
  8
WHITE
 10
2453.269746
 20
219.819238
 30
0.000000
 40
3.179206
 50
-72.003761
 51
-29.740077
  6
CONTINUOUS
  0
ARC
  8
WHITE
 10
2452.376846
 20
220.286242
 30
0.000000
 40
4.186330
 50
-29.227580
 51
-11.796593
  6
CONTINUOUS
  0
ARC
  8
WHITE
 10
2449.652927
 20
220.861568
 30
0.000000
 40
6.970340
 50
-11.848404
 51
0.551280
  6
CONTINUOUS
  0
LINE
  8
WHITE
 10
2456.622944
 20
220.928634
 30
0.000000
 11
2456.622944
 21
221.982397
 31
0.000000
  6
CONTINUOUS
  0
LINE
  8
YELLOW
 10
515.000000
 20
40.000000
 30
0.000000
 11
515.000000
 21
440.000000
 31
0.000000
  6
CONTINUOUS
  0
ARC
  8
YELLOW
 10
507.000000
 20
440.000000
 30
0.000000
 40
8.000000
 50
0.000000
 51
90.000000
  6
CONTINUOUS
  0
LINE
  8
YELLOW
 10
507.000000
 20
448.000000
 30
0.000000
 11
38.000000
 21
448.000000
 31
0.000000
  6
CONTINUOUS
  0
ARC
  8
YELLOW
 10
38.000000
 20
440.000000
 30
0.000000
 40
8.000000
 50
90.000000
 51
180.000000
  6
CONTINUOUS
  0
LINE
  8
YELLOW
 10
30.000000
 20
440.000000
 30
0.000000
 11
30.000000
 21
163.000000
 31
0.000000
  6
CONTINUOUS
  0
ARC
  8
YELLOW
 10
38.000000
 20
163.000000
 30
0.000000
 40
8.000000
 50
180.000000
 51
270.000000
  6
CONTINUOUS
  0
LINE
  8
YELLOW
 10
38.000000
 20
155.000000
 30
0.000000
 11
139.475484
 21
155.000000
 31
0.000000
  6
CONTINUOUS
  0
ARC
  8
YELLOW
 10
139.475484
 20
147.000000
 30
0.000000
 40
8.000000
 50
0.000000
 51
90.000000
  6
CONTINUOUS
  0
LINE
  8
YELLOW
 10
147.475484
 20
147.000000
 30
0.000000
 11
147.475484
 21
90.484114
 31
0.000000
  6
CONTINUOUS
  0
ARC
  8
YELLOW
 10
155.475484
 20
90.484114
 30
0.000000
 40
8.000000
 50
180.000000
 51
200.000000
  6
CONTINUOUS
  0
LINE
  8
YELLOW
 10
147.957943
 20
87.747953
 30
0.000000
 11
166.332658
 21
37.263839
 31
0.000000
  6
CONTINUOUS
  0
ARC
  8
YELLOW
 10
173.850199
 20
40.000000
 30
0.000000
 40
8.000000
 50
-160.000000
 51
-90.000000
  6
CONTINUOUS
  0
LINE
  8
YELLOW
 10
173.850199
 20
32.000000
 30
0.000000
 11
507.000000
 21
32.000000
 31
0.000000
  6
CONTINUOUS
  0
ARC
  8
YELLOW
 10
507.000000
 20
40.000000
 30
0.000000
 40
8.000000
 50
-90.000000
 51
0.000000
  6
CONTINUOUS
  0
LINE
  8
YELLOW
 10
982.000000
 20
244.240577
 30
0.000000
 11
887.000000
 21
244.240577
 31
0.000000
  6
CONTINUOUS
  0
ARC
  8
YELLOW
 10
887.000000
 20
249.240577
 30
0.000000
 40
5.000000
 50
180.000000
 51
270.000000
  6
CONTINUOUS
  0
LINE
  8
YELLOW
 10
882.000000
 20
249.240577
 30
0.000000
 11
882.000000
 21
384.246367
 31
0.000000
  6
CONTINUOUS
  0
ARC
  8
YELLOW
 10
887.000000
 20
384.246367
 30
0.000000
 40
5.000000
 50
90.000000
 51
180.000000
  6
CONTINUOUS
  0
LINE
  8
YELLOW
 10
887.000000
 20
389.246367
 30
0.000000
 11
997.000000
 21
389.246367
 31
0.000000
  6
CONTINUOUS
  0
ARC
  8
YELLOW
 10
997.000000
 20
384.246367
 30
0.000000
 40
5.000000
 50
0.000000
 51
90.000000
  6
CONTINUOUS
  0
LINE
  8
YELLOW
 10
1002.000000
 20
384.246367
 30
0.000000
 11
1002.000000
 21
309.746204
 31
0.000000
  6
CONTINUOUS
  0
ARC
  8
YELLOW
 10
997.000000
 20
309.746204
 30
0.000000
 40
5.000000
 50
-90.000000
 51
0.000000
  6
CONTINUOUS
  0
LINE
  8
YELLOW
 10
997.000000
 20
304.746204
 30
0.000000
 11
992.000000
 21
304.746204
 31
0.000000
  6
CONTINUOUS
  0
ARC
  8
YELLOW
 10
992.000000
 20
299.746204
 30
0.000000
 40
5.000000
 50
90.000000
 51
180.000000
  6
CONTINUOUS
  0
LINE
  8
YELLOW
 10
987.000000
 20
299.746204
 30
0.000000
 11
987.000000
 21
249.240577
 31
0.000000
  6
CONTINUOUS
  0
ARC
  8
YELLOW
 10
982.000000
 20
249.240577
 30
0.000000
 40
5.000000
 50
-90.000000
 51
0.000000
  6
CONTINUOUS
  0
LINE
  8
YELLOW
 10
-100.000000
 20
546.000000
 30
0.000000
 11
-100.000000
 21
555.000000
 31
0.000000
  6
CONTINUOUS
  0
ARC
  8
YELLOW
 10
-97.000000
 20
555.000000
 30
0.000000
 40
3.000000
 50
90.000000
 51
180.000000
  6
CONTINUOUS
  0
LINE
  8
YELLOW
 10
-97.000000
 20
558.000000
 30
0.000000
 11
0.351548
 21
558.000000
 31
0.000000
  6
CONTINUOUS
  0
ARC
  8
YELLOW
 10
0.351548
 20
555.000000
 30
0.000000
 40
3.000000
 50
0.000000
 51
90.000000
  6
CONTINUOUS
  0
LINE
  8
YELLOW
 10
3.351548
 20
555.000000
 30
0.000000
 11
3.351548
 21
546.000000
 31
0.000000
  6
CONTINUOUS
  0
ARC
  8
YELLOW
 10
0.351548
 20
546.000000
 30
0.000000
 40
3.000000
 50
-90.000000
 51
0.000000
  6
CONTINUOUS
  0
LINE
  8
YELLOW
 10
0.351548
 20
543.000000
 30
0.000000
 11
-97.000000
 21
543.000000
 31
0.000000
  6
CONTINUOUS
  0
ARC
  8
YELLOW
 10
-97.000000
 20
546.000000
 30
0.000000
 40
3.000000
 50
180.000000
 51
270.000000
  6
CONTINUOUS
  0
LINE
  8
YELLOW
 10
1123.000000
 20
371.000000
 30
0.000000
 11
1123.000000
 21
401.000000
 31
0.000000
  6
CONTINUOUS
  0
ARC
  8
YELLOW
 10
1118.000000
 20
401.000000
 30
0.000000
 40
5.000000
 50
0.000000
 51
90.000000
  6
CONTINUOUS
  0
LINE
  8
YELLOW
 10
1118.000000
 20
406.000000
 30
0.000000
 11
1098.000000
 21
406.000000
 31
0.000000
  6
CONTINUOUS
  0
ARC
  8
YELLOW
 10
1098.000000
 20
401.000000
 30
0.000000
 40
5.000000
 50
90.000000
 51
180.000000
  6
CONTINUOUS
  0
LINE
  8
YELLOW
 10
1093.000000
 20
401.000000
 30
0.000000
 11
1093.000000
 21
371.000000
 31
0.000000
  6
CONTINUOUS
  0
ARC
  8
YELLOW
 10
1098.000000
 20
371.000000
 30
0.000000
 40
5.000000
 50
180.000000
 51
270.000000
  6
CONTINUOUS
  0
LINE
  8
YELLOW
 10
1098.000000
 20
366.000000
 30
0.000000
 11
1118.000000
 21
366.000000
 31
0.000000
  6
CONTINUOUS
  0
ARC
  8
YELLOW
 10
1118.000000
 20
371.000000
 30
0.000000
 40
5.000000
 50
-90.000000
 51
0.000000
  6
CONTINUOUS
  0
CIRCLE
  8
YELLOW
 10
35.000000
 20
813.500000
 30
0.000000
 40
6.000000
  6
CONTINUOUS
  0
CIRCLE
  8
YELLOW
 10
35.000000
 20
1155.000000
 30
0.000000
 40
6.000000
  6
CONTINUOUS
  0
CIRCLE
  8
YELLOW
 10
85.000000
 20
789.000000
 30
0.000000
 40
6.000000
  6
CONTINUOUS
  0
CIRCLE
  8
YELLOW
 10
85.000000
 20
838.000000
 30
0.000000
 40
6.000000
  6
CONTINUOUS
  0
CIRCLE
  8
YELLOW
 10
85.000000
 20
887.000000
 30
0.000000
 40
6.000000
  6
CONTINUOUS
  0
CIRCLE
  8
YELLOW
 10
85.000000
 20
1131.500000
 30
0.000000
 40
6.000000
  6
CONTINUOUS
  0
CIRCLE
  8
YELLOW
 10
85.000000
 20
1178.500000
 30
0.000000
 40
6.000000
  6
CONTINUOUS
  0
CIRCLE
  8
YELLOW
 10
135.000000
 20
1202.000000
 30
0.000000
 40
6.000000
  6
CONTINUOUS
  0
CIRCLE
  8
YELLOW
 10
150.000000
 20
657.000000
 30
0.000000
 40
6.000000
  6
CONTINUOUS
  0
CIRCLE
  8
YELLOW
 10
150.000000
 20
764.500000
 30
0.000000
 40
6.000000
  6
CONTINUOUS
  0
CIRCLE
  8
YELLOW
 10
150.000000
 20
813.500000
 30
0.000000
 40
6.000000
  6
CONTINUOUS
  0
CIRCLE
  8
YELLOW
 10
150.000000
 20
862.500000
 30
0.000000
 40
6.000000
  6
CONTINUOUS
  0
CIRCLE
  8
YELLOW
 10
200.000000
 20
583.500000
 30
0.000000
 40
6.000000
  6
CONTINUOUS
  0
CIRCLE
  8
YELLOW
 10
200.000000
 20
632.500000
 30
0.000000
 40
6.000000
  6
CONTINUOUS
  0
CIRCLE
  8
YELLOW
 10
200.000000
 20
681.500000
 30
0.000000
 40
6.000000
  6
CONTINUOUS
  0
CIRCLE
  8
YELLOW
 10
200.000000
 20
789.000000
 30
0.000000
 40
6.000000
  6
CONTINUOUS
  0
CIRCLE
  8
YELLOW
 10
200.000000
 20
838.000000
 30
0.000000
 40
6.000000
  6
CONTINUOUS
  0
CIRCLE
  8
YELLOW
 10
200.000000
 20
887.000000
 30
0.000000
 40
6.000000
  6
CONTINUOUS
  0
CIRCLE
  8
YELLOW
 10
250.000000
 20
608.000000
 30
0.000000
 40
6.000000
  6
CONTINUOUS
  0
CIRCLE
  8
YELLOW
 10
250.000000
 20
657.000000
 30
0.000000
 40
6.000000
  6
CONTINUOUS
  0
CIRCLE
  8
YELLOW
 10
250.000000
 20
706.000000
 30
0.000000
 40
6.000000
  6
CONTINUOUS
  0
CIRCLE
  8
YELLOW
 10
250.000000
 20
911.500000
 30
0.000000
 40
6.000000
  6
CONTINUOUS
  0
CIRCLE
  8
YELLOW
 10
300.000000
 20
681.500000
 30
0.000000
 40
6.000000
  6
CONTINUOUS
  0
CIRCLE
  8
YELLOW
 10
300.000000
 20
789.000000
 30
0.000000
 40
6.000000
  6
CONTINUOUS
  0
CIRCLE
  8
YELLOW
 10
300.000000
 20
838.000000
 30
0.000000
 40
6.000000
  6
CONTINUOUS
  0
CIRCLE
  8
YELLOW
 10
300.000000
 20
887.000000
 30
0.000000
 40
6.000000
  6
CONTINUOUS
  0
CIRCLE
  8
YELLOW
 10
350.000000
 20
608.000000
 30
0.000000
 40
6.000000
  6
CONTINUOUS
  0
CIRCLE
  8
YELLOW
 10
350.000000
 20
657.000000
 30
0.000000
 40
6.000000
  6
CONTINUOUS
  0
CIRCLE
  8
YELLOW
 10
350.000000
 20
764.500000
 30
0.000000
 40
6.000000
  6
CONTINUOUS
  0
CIRCLE
  8
YELLOW
 10
350.000000
 20
813.500000
 30
0.000000
 40
6.000000
  6
CONTINUOUS
  0
CIRCLE
  8
YELLOW
 10
350.000000
 20
862.500000
 30
0.000000
 40
6.000000
  6
CONTINUOUS
  0
CIRCLE
  8
YELLOW
 10
350.000000
 20
911.500000
 30
0.000000
 40
6.000000
  6
CONTINUOUS
  0
CIRCLE
  8
YELLOW
 10
602.000000
 20
247.000000
 30
0.000000
 40
6.000000
  6
CONTINUOUS
  0
CIRCLE
  8
YELLOW
 10
602.000000
 20
294.000000
 30
0.000000
 40
6.000000
  6
CONTINUOUS
  0
CIRCLE
  8
YELLOW
 10
675.000000
 20
643.000000
 30
0.000000
 40
6.000000
  6
CONTINUOUS
  0
CIRCLE
  8
YELLOW
 10
675.000000
 20
698.000000
 30
0.000000
 40
6.000000
  6
CONTINUOUS
  0
CIRCLE
  8
YELLOW
 10
675.000000
 20
748.000000
 30
0.000000
 40
6.000000
  6
CONTINUOUS
  0
CIRCLE
  8
YELLOW
 10
675.000000
 20
853.000000
 30
0.000000
 40
6.000000
  6
CONTINUOUS
  0
CIRCLE
  8
YELLOW
 10
675.000000
 20
908.000000
 30
0.000000
 40
6.000000
  6
CONTINUOUS
  0
CIRCLE
  8
YELLOW
 10
930.039954
 20
643.000000
 30
0.000000
 40
6.000000
  6
CONTINUOUS
  0
CIRCLE
  8
YELLOW
 10
930.039954
 20
698.000000
 30
0.000000
 40
6.000000
  6
CONTINUOUS
  0
CIRCLE
  8
YELLOW
 10
930.039954
 20
748.000000
 30
0.000000
 40
6.000000
  6
CONTINUOUS
  0
CIRCLE
  8
YELLOW
 10
930.039954
 20
798.000000
 30
0.000000
 40
6.000000
  6
CONTINUOUS
  0
CIRCLE
  8
YELLOW
 10
930.039954
 20
908.000000
 30
0.000000
 40
6.000000
  6
CONTINUOUS
  0
CIRCLE
  8
YELLOW
 10
1134.985787
 20
811.000000
 30
0.000000
 40
6.000000
  6
CONTINUOUS
  0
CIRCLE
  8
YELLOW
 10
1134.985787
 20
905.000000
 30
0.000000
 40
6.000000
  6
CONTINUOUS
  0
CIRCLE
  8
YELLOW
 10
1420.000000
 20
106.000000
 30
0.000000
 40
6.000000
  6
CONTINUOUS
  0
CIRCLE
  8
YELLOW
 10
1420.000000
 20
294.000000
 30
0.000000
 40
6.000000
  6
CONTINUOUS
  0
CIRCLE
  8
YELLOW
 10
1420.000000
 20
341.000000
 30
0.000000
 40
6.000000
  6
CONTINUOUS
  0
CIRCLE
  8
YELLOW
 10
1420.000000
 20
388.000000
 30
0.000000
 40
6.000000
  6
CONTINUOUS
  0
CIRCLE
  8
YELLOW
 10
1479.967756
 20
811.000000
 30
0.000000
 40
6.000000
  6
CONTINUOUS
  0
CIRCLE
  8
YELLOW
 10
1479.967756
 20
905.000000
 30
0.000000
 40
6.000000
  6
CONTINUOUS
  0
CIRCLE
  8
YELLOW
 10
1870.000000
 20
643.000000
 30
0.000000
 40
6.000000
  6
CONTINUOUS
  0
CIRCLE
  8
YELLOW
 10
1870.000000
 20
698.000000
 30
0.000000
 40
6.000000
  6
CONTINUOUS
  0
CIRCLE
  8
YELLOW
 10
1870.000000
 20
748.000000
 30
0.000000
 40
6.000000
  6
CONTINUOUS
  0
CIRCLE
  8
YELLOW
 10
1870.000000
 20
798.000000
 30
0.000000
 40
6.000000
  6
CONTINUOUS
  0
CIRCLE
  8
YELLOW
 10
1870.000000
 20
908.000000
 30
0.000000
 40
6.000000
  6
CONTINUOUS
  0
CIRCLE
  8
YELLOW
 10
1920.000000
 20
106.000000
 30
0.000000
 40
6.000000
  6
CONTINUOUS
  0
CIRCLE
  8
YELLOW
 10
1920.000000
 20
294.000000
 30
0.000000
 40
6.000000
  6
CONTINUOUS
  0
CIRCLE
  8
YELLOW
 10
1920.000000
 20
341.000000
 30
0.000000
 40
6.000000
  6
CONTINUOUS
  0
CIRCLE
  8
YELLOW
 10
1920.000000
 20
388.000000
 30
0.000000
 40
6.000000
  6
CONTINUOUS
  0
CIRCLE
  8
YELLOW
 10
2395.000000
 20
247.000000
 30
0.000000
 40
6.000000
  6
CONTINUOUS
  0
CIRCLE
  8
YELLOW
 10
2395.000000
 20
294.000000
 30
0.000000
 40
6.000000
  6
CONTINUOUS
  0
CIRCLE
  8
YELLOW
 10
2395.000000
 20
341.000000
 30
0.000000
 40
6.000000
  6
CONTINUOUS
  0
CIRCLE
  8
YELLOW
 10
2395.000000
 20
388.000000
 30
0.000000
 40
6.000000
  6
CONTINUOUS
  0
CIRCLE
  8
YELLOW
 10
2395.000000
 20
588.000000
 30
0.000000
 40
6.000000
  6
CONTINUOUS
  0
CIRCLE
  8
YELLOW
 10
2395.000000
 20
698.000000
 30
0.000000
 40
6.000000
  6
CONTINUOUS
  0
CIRCLE
  8
YELLOW
 10
2395.000000
 20
748.000000
 30
0.000000
 40
6.000000
  6
CONTINUOUS
  0
CIRCLE
  8
YELLOW
 10
2395.000000
 20
798.000000
 30
0.000000
 40
6.000000
  6
CONTINUOUS
  0
CIRCLE
  8
YELLOW
 10
2395.000000
 20
853.000000
 30
0.000000
 40
6.000000
  6
CONTINUOUS
  0
CIRCLE
  8
YELLOW
 10
2395.000000
 20
908.000000
 30
0.000000
 40
6.000000
  6
CONTINUOUS
  0
LINE
  8
YELLOW
 10
7.310174
 20
550.500000
 30
0.000000
 11
-104.897226
 21
550.500000
 31
0.000000
  6
DASHDOT
  0
LINE
  8
YELLOW
 10
2445.000000
 20
518.000000
 30
0.000000
 11
-80.000000
 21
518.000000
 31
0.000000
  6
CONTINUOUS
  0
LINE
  8
YELLOW
 10
-80.000000
 20
518.000000
 30
0.000000
 11
-80.000000
 21
543.000000
 31
0.000000
  6
CONTINUOUS
  0
ARC
  8
YELLOW
 10
49.200000
 20
522.200000
 30
0.000000
 40
4.200000
 50
180.000000
 51
270.000000
  6
CONTINUOUS
  0
LINE
  8
YELLOW
 10
45.000000
 20
522.200000
 30
0.000000
 11
45.000000
 21
723.000000
 31
0.000000
  6
CONTINUOUS
  0
ARC
  8
YELLOW
 10
37.000000
 20
723.000000
 30
0.000000
 40
8.000000
 50
0.000000
 51
90.000000
  6
CONTINUOUS
  0
LINE
  8
YELLOW
 10
37.000000
 20
731.000000
 30
0.000000
 11
-80.000000
 21
731.000000
 31
0.000000
  6
CONTINUOUS
  0
LINE
  8
YELLOW
 10
-80.000000
 20
731.000000
 30
0.000000
 11
-80.000000
 21
558.000000
 31
0.000000
  6
CONTINUOUS
  0
LINE
  8
YELLOW
 10
-80.000000
 20
538.000000
 30
0.000000
 11
14.000000
 21
538.000000
 31
0.000000
  6
CONTINUOUS
  0
ARC
  8
YELLOW
 10
14.000000
 20
540.000000
 30
0.000000
 40
2.000000
 50
-90.000000
 51
0.000000
  6
CONTINUOUS
  0
LINE
  8
YELLOW
 10
16.000000
 20
540.000000
 30
0.000000
 11
16.000000
 21
560.500000
 31
0.000000
  6
CONTINUOUS
  0
ARC
  8
YELLOW
 10
14.000000
 20
560.500000
 30
0.000000
 40
2.000000
 50
0.000000
 51
90.000000
  6
CONTINUOUS
  0
LINE
  8
YELLOW
 10
14.000000
 20
562.500000
 30
0.000000
 11
-80.000000
 21
562.500000
 31
0.000000
  6
CONTINUOUS
  0
LINE
  8
YELLOW
 10
-80.000000
 20
686.500000
 30
0.000000
 11
14.000000
 21
686.500000
 31
0.000000
  6
CONTINUOUS
  0
ARC
  8
YELLOW
 10
14.000000
 20
688.500000
 30
0.000000
 40
2.000000
 50
-90.000000
 51
0.000000
  6
CONTINUOUS
  0
LINE
  8
YELLOW
 10
16.000000
 20
688.500000
 30
0.000000
 11
16.000000
 21
709.000000
 31
0.000000
  6
CONTINUOUS
  0
ARC
  8
YELLOW
 10
14.000000
 20
709.000000
 30
0.000000
 40
2.000000
 50
0.000000
 51
90.000000
  6
CONTINUOUS
  0
LINE
  8
YELLOW
 10
14.000000
 20
711.000000
 30
0.000000
 11
-80.000000
 21
711.000000
 31
0.000000
  6
CONTINUOUS
  0
LINE
  8
YELLOW
 10
2724.457412
 20
-122.000000
 30
0.000000
 11
-58.805251
 21
-122.000000
 31
0.000000
  6
CONTINUOUS
  0
LINE
  8
YELLOW
 10
2445.000000
 20
458.000000
 30
0.000000
 11
0.000000
 21
458.000000
 31
0.000000
  6
CONTINUOUS
  0
LINE
  8
YELLOW
 10
0.000000
 20
458.000000
 30
0.000000
 11
0.000000
 21
518.000000
 31
0.000000
  6
CONTINUOUS
  0
LINE
  8
YELLOW
 10
115.000000
 20
518.000000
 30
0.000000
 11
115.000000
 21
731.500000
 31
0.000000
  6
CONTINUOUS
  0
LINE
  8
YELLOW
 10
115.000000
 20
731.500000
 30
0.000000
 11
0.000000
 21
731.500000
 31
0.000000
  6
CONTINUOUS
  0
LINE
  8
YELLOW
 10
0.000000
 20
731.500000
 30
0.000000
 11
0.000000
 21
1232.000000
 31
0.000000
  6
CONTINUOUS
  0
LINE
  8
YELLOW
 10
0.000000
 20
1232.000000
 30
0.000000
 11
170.000000
 21
1232.000000
 31
0.000000
  6
CONTINUOUS
  0
LINE
  8
YELLOW
 10
170.000000
 20
1232.000000
 30
0.000000
 11
170.000000
 21
1038.000000
 31
0.000000
  6
CONTINUOUS
  0
LINE
  8
YELLOW
 10
2445.000000
 20
978.000000
 30
0.000000
 11
0.000000
 21
978.000000
 31
0.000000
  6
CONTINUOUS
  0
LINE
  8
YELLOW
 10
2445.000000
 20
1038.000000
 30
0.000000
 11
0.000000
 21
1038.000000
 31
0.000000
  6
CONTINUOUS
  0
LINE
  8
YELLOW
 10
37.000000
 20
211.280359
 30
0.000000
 11
37.000000
 21
201.000000
 31
0.000000
  6
CONTINUOUS
  0
LINE
  8
YELLOW
 10
37.000000
 20
263.280359
 30
0.000000
 11
37.000000
 21
253.719641
 31
0.000000
  6
CONTINUOUS
  0
LINE
  8
YELLOW
 10
37.000000
 20
289.280359
 30
0.000000
 11
37.000000
 21
279.000000
 31
0.000000
  6
CONTINUOUS
  0
LINE
  8
YELLOW
 10
37.000000
 20
341.280359
 30
0.000000
 11
37.000000
 21
331.719641
 31
0.000000
  6
CONTINUOUS
  0
LINE
  8
YELLOW
 10
37.000000
 20
367.280359
 30
0.000000
 11
37.000000
 21
357.719641
 31
0.000000
  6
CONTINUOUS
  0
LINE
  8
YELLOW
 10
37.000000
 20
393.280359
 30
0.000000
 11
37.000000
 21
383.719641
 31
0.000000
  6
CONTINUOUS
  0
LINE
  8
YELLOW
 10
37.000000
 20
419.280359
 30
0.000000
 11
37.000000
 21
409.719641
 31
0.000000
  6
CONTINUOUS
  0
ARC
  8
YELLOW
 10
37.000000
 20
526.000000
 30
0.000000
 40
8.000000
 50
-90.000000
 51
0.000000
  6
CONTINUOUS
  0
LINE
  8
YELLOW
 10
43.000000
 20
201.719641
 30
0.000000
 11
43.000000
 21
211.280359
 31
0.000000
  6
CONTINUOUS
  0
LINE
  8
YELLOW
 10
43.000000
 20
253.719641
 30
0.000000
 11
43.000000
 21
263.280359
 31
0.000000
  6
CONTINUOUS
  0
LINE
  8
YELLOW
 10
43.000000
 20
279.719641
 30
0.000000
 11
43.000000
 21
289.280359
 31
0.000000
  6
CONTINUOUS
  0
LINE
  8
YELLOW
 10
43.000000
 20
341.280359
 30
0.000000
 11
43.000000
 21
331.719641
 31
0.000000
  6
CONTINUOUS
  0
LINE
  8
YELLOW
 10
43.000000
 20
367.280359
 30
0.000000
 11
43.000000
 21
357.719641
 31
0.000000
  6
CONTINUOUS
  0
LINE
  8
YELLOW
 10
43.000000
 20
393.280359
 30
0.000000
 11
43.000000
 21
383.719641
 31
0.000000
  6
CONTINUOUS
  0
LINE
  8
YELLOW
 10
43.000000
 20
419.280359
 30
0.000000
 11
43.000000
 21
409.719641
 31
0.000000
  6
CONTINUOUS
  0
ARC
  8
YELLOW
 10
110.800000
 20
726.800000
 30
0.000000
 40
4.200000
 50
0.000000
 51
90.000000
  6
CONTINUOUS
  0
LINE
  8
YELLOW
 10
110.800000
 20
731.000000
 30
0.000000
 11
49.200000
 21
731.000000
 31
0.000000
  6
CONTINUOUS
  0
ARC
  8
YELLOW
 10
49.200000
 20
726.800000
 30
0.000000
 40
4.200000
 50
90.000000
 51
180.000000
  6
CONTINUOUS
  0
LINE
  8
YELLOW
 10
54.280359
 20
164.500000
 30
0.000000
 11
48.219641
 21
164.500000
 31
0.000000
  6
CONTINUOUS
  0
LINE
  8
YELLOW
 10
54.280359
 20
170.500000
 30
0.000000
 11
48.219641
 21
170.500000
 31
0.000000
  6
CONTINUOUS
  0
LINE
  8
YELLOW
 10
59.500000
 20
237.280359
 30
0.000000
 11
59.500000
 21
227.719641
 31
0.000000
  6
CONTINUOUS
  0
LINE
  8
YELLOW
 10
76.780359
 20
268.500000
 30
0.000000
 11
59.500000
 21
276.280359
 31
0.000000
  6
CONTINUOUS
  0
LINE
  8
YELLOW
 10
59.500000
 20
292.719641
 30
0.000000
 11
59.500000
 21
302.280359
 31
0.000000
  6
CONTINUOUS
  0
LINE
  8
YELLOW
 10
59.500000
 20
318.719641
 30
0.000000
 11
59.500000
 21
328.280359
 31
0.000000
  6
CONTINUOUS
  0
LINE
  8
YELLOW
 10
76.780359
 20
346.500000
 30
0.000000
 11
59.500000
 21
354.280359
 31
0.000000
  6
CONTINUOUS
  0
LINE
  8
YELLOW
 10
59.500000
 20
370.719641
 30
0.000000
 11
59.500000
 21
380.280359
 31
0.000000
  6
CONTINUOUS
  0
LINE
  8
YELLOW
 10
59.500000
 20
396.719641
 30
0.000000
 11
59.500000
 21
406.280359
 31
0.000000
  6
CONTINUOUS
  0
LINE
  8
YELLOW
 10
59.500000
 20
422.719641
 30
0.000000
 11
76.780359
 21
430.500000
 31
0.000000
  6
CONTINUOUS
  0
LINE
  8
YELLOW
 10
76.780359
 20
164.500000
 30
0.000000
 11
70.719641
 21
164.500000
 31
0.000000
  6
CONTINUOUS
  0
LINE
  8
YELLOW
 10
76.780359
 20
170.500000
 30
0.000000
 11
70.719641
 21
170.500000
 31
0.000000
  6
CONTINUOUS
  0
LINE
  8
YELLOW
 10
76.780359
 20
190.500000
 30
0.000000
 11
70.719641
 21
190.500000
 31
0.000000
  6
CONTINUOUS
  0
LINE
  8
YELLOW
 10
76.780359
 20
196.500000
 30
0.000000
 11
70.719641
 21
196.500000
 31
0.000000
  6
CONTINUOUS
  0
LINE
  8
YELLOW
 10
70.719641
 20
216.500000
 30
0.000000
 11
76.780359
 21
216.500000
 31
0.000000
  6
CONTINUOUS
  0
LINE
  8
YELLOW
 10
76.780359
 20
248.500000
 30
0.000000
 11
70.719641
 21
248.500000
 31
0.000000
  6
CONTINUOUS
  0
LINE
  8
YELLOW
 10
70.719641
 20
339.500000
 30
0.000000
 11
99.280359
 21
339.500000
 31
0.000000
  6
CONTINUOUS
  0
LINE
  8
YELLOW
 10
88.000000
 20
227.719641
 30
0.000000
 11
88.000000
 21
237.280359
 31
0.000000
  6
CONTINUOUS
  0
LINE
  8
YELLOW
 10
99.280359
 20
164.500000
 30
0.000000
 11
93.219641
 21
164.500000
 31
0.000000
  6
CONTINUOUS
  0
LINE
  8
YELLOW
 10
99.280359
 20
170.500000
 30
0.000000
 11
93.219641
 21
170.500000
 31
0.000000
  6
CONTINUOUS
  0
LINE
  8
YELLOW
 10
99.280359
 20
190.500000
 30
0.000000
 11
93.219641
 21
190.500000
 31
0.000000
  6
CONTINUOUS
  0
LINE
  8
YELLOW
 10
99.280359
 20
196.500000
 30
0.000000
 11
93.219641
 21
196.500000
 31
0.000000
  6
CONTINUOUS
  0
LINE
  8
YELLOW
 10
121.780359
 20
268.500000
 30
0.000000
 11
93.219641
 21
268.500000
 31
0.000000
  6
CONTINUOUS
  0
LINE
  8
YELLOW
 10
121.780359
 20
346.500000
 30
0.000000
 11
93.219641
 21
346.500000
 31
0.000000
  6
CONTINUOUS
  0
LINE
  8
YELLOW
 10
93.219641
 20
430.500000
 30
0.000000
 11
121.780359
 21
430.500000
 31
0.000000
  6
CONTINUOUS
  0
LINE
  8
YELLOW
 10
104.500000
 20
237.280359
 30
0.000000
 11
104.500000
 21
227.719641
 31
0.000000
  6
CONTINUOUS
  0
ARC
  8
YELLOW
 10
110.800000
 20
522.200000
 30
0.000000
 40
4.200000
 50
-90.000000
 51
0.000000
  6
CONTINUOUS
  0
LINE
  8
YELLOW
 10
121.780359
 20
164.500000
 30
0.000000
 11
115.719641
 21
164.500000
 31
0.000000
  6
CONTINUOUS
  0
LINE
  8
YELLOW
 10
121.780359
 20
170.500000
 30
0.000000
 11
115.719641
 21
170.500000
 31
0.000000
  6
CONTINUOUS
  0
LINE
  8
YELLOW
 10
121.780359
 20
190.500000
 30
0.000000
 11
115.719641
 21
190.500000
 31
0.000000
  6
CONTINUOUS
  0
LINE
  8
YELLOW
 10
121.780359
 20
196.500000
 30
0.000000
 11
115.719641
 21
196.500000
 31
0.000000
  6
CONTINUOUS
  0
LINE
  8
YELLOW
 10
115.719641
 20
216.500000
 30
0.000000
 11
121.780359
 21
216.500000
 31
0.000000
  6
CONTINUOUS
  0
LINE
  8
YELLOW
 10
121.780359
 20
248.500000
 30
0.000000
 11
115.719641
 21
248.500000
 31
0.000000
  6
CONTINUOUS
  0
LINE
  8
YELLOW
 10
115.719641
 20
339.500000
 30
0.000000
 11
133.000000
 21
331.719641
 31
0.000000
  6
CONTINUOUS
  0
LINE
  8
YELLOW
 10
133.000000
 20
227.719641
 30
0.000000
 11
133.000000
 21
237.280359
 31
0.000000
  6
CONTINUOUS
  0
LINE
  8
YELLOW
 10
133.000000
 20
289.280359
 30
0.000000
 11
133.000000
 21
279.719641
 31
0.000000
  6
CONTINUOUS
  0
LINE
  8
YELLOW
 10
133.000000
 20
315.280359
 30
0.000000
 11
133.000000
 21
305.719641
 31
0.000000
  6
CONTINUOUS
  0
LINE
  8
YELLOW
 10
133.000000
 20
367.280359
 30
0.000000
 11
133.000000
 21
357.719641
 31
0.000000
  6
CONTINUOUS
  0
LINE
  8
YELLOW
 10
133.000000
 20
393.280359
 30
0.000000
 11
133.000000
 21
383.719641
 31
0.000000
  6
CONTINUOUS
  0
LINE
  8
YELLOW
 10
133.000000
 20
419.280359
 30
0.000000
 11
133.000000
 21
409.719641
 31
0.000000
  6
CONTINUOUS
  0
LINE
  8
YELLOW
 10
166.780359
 20
164.500000
 30
0.000000
 11
149.500000
 21
172.280359
 31
0.000000
  6
CONTINUOUS
  0
LINE
  8
YELLOW
 10
149.500000
 20
188.719641
 30
0.000000
 11
149.500000
 21
198.280359
 31
0.000000
  6
CONTINUOUS
  0
LINE
  8
YELLOW
 10
166.780359
 20
216.500000
 30
0.000000
 11
149.500000
 21
224.280359
 31
0.000000
  6
CONTINUOUS
  0
LINE
  8
YELLOW
 10
149.500000
 20
240.719641
 30
0.000000
 11
149.500000
 21
250.280359
 31
0.000000
  6
CONTINUOUS
  0
LINE
  8
YELLOW
 10
166.780359
 20
268.500000
 30
0.000000
 11
149.500000
 21
276.280359
 31
0.000000
  6
CONTINUOUS
  0
LINE
  8
YELLOW
 10
149.500000
 20
292.719641
 30
0.000000
 11
149.500000
 21
302.280359
 31
0.000000
  6
CONTINUOUS
  0
LINE
  8
YELLOW
 10
149.500000
 20
318.719641
 30
0.000000
 11
149.500000
 21
328.280359
 31
0.000000
  6
CONTINUOUS
  0
LINE
  8
YELLOW
 10
166.780359
 20
346.500000
 30
0.000000
 11
149.500000
 21
354.280359
 31
0.000000
  6
CONTINUOUS
  0
LINE
  8
YELLOW
 10
149.500000
 20
370.719641
 30
0.000000
 11
149.500000
 21
380.280359
 31
0.000000
  6
CONTINUOUS
  0
LINE
  8
YELLOW
 10
149.500000
 20
396.719641
 30
0.000000
 11
149.500000
 21
406.280359
 31
0.000000
  6
CONTINUOUS
  0
LINE
  8
YELLOW
 10
149.500000
 20
422.719641
 30
0.000000
 11
166.780359
 21
430.500000
 31
0.000000
  6
CONTINUOUS
  0
LINE
  8
YELLOW
 10
157.000000
 20
106.219641
 30
0.000000
 11
157.000000
 21
115.780359
 31
0.000000
  6
CONTINUOUS
  0
LINE
  8
YELLOW
 10
157.000000
 20
132.219641
 30
0.000000
 11
157.000000
 21
141.780359
 31
0.000000
  6
CONTINUOUS
  0
LINE
  8
YELLOW
 10
160.719641
 20
209.500000
 30
0.000000
 11
178.000000
 21
201.719641
 31
0.000000
  6
CONTINUOUS
  0
LINE
  8
YELLOW
 10
160.719641
 20
261.500000
 30
0.000000
 11
178.000000
 21
253.719641
 31
0.000000
  6
CONTINUOUS
  0
LINE
  8
YELLOW
 10
160.719641
 20
339.500000
 30
0.000000
 11
189.280359
 21
339.500000
 31
0.000000
  6
CONTINUOUS
  0
LINE
  8
YELLOW
 10
163.000000
 20
106.219641
 30
0.000000
 11
163.000000
 21
115.780359
 31
0.000000
  6
CONTINUOUS
  0
LINE
  8
YELLOW
 10
163.000000
 20
132.219641
 30
0.000000
 11
163.000000
 21
141.780359
 31
0.000000
  6
CONTINUOUS
  0
LINE
  8
YELLOW
 10
173.361282
 20
97.809158
 30
0.000000
 11
169.503128
 21
87.250000
 31
0.000000
  6
CONTINUOUS
  0
LINE
  8
YELLOW
 10
175.138718
 20
85.190842
 30
0.000000
 11
179.000000
 21
95.758562
 31
0.000000
  6
CONTINUOUS
  0
LINE
  8
YELLOW
 10
176.000000
 20
112.719641
 30
0.000000
 11
176.000000
 21
128.780359
 31
0.000000
  6
CONTINUOUS
  0
LINE
  8
YELLOW
 10
178.000000
 20
185.280359
 30
0.000000
 11
178.000000
 21
175.719641
 31
0.000000
  6
CONTINUOUS
  0
LINE
  8
YELLOW
 10
178.000000
 20
237.280359
 30
0.000000
 11
178.000000
 21
227.719641
 31
0.000000
  6
CONTINUOUS
  0
LINE
  8
YELLOW
 10
182.000000
 20
128.780359
 30
0.000000
 11
182.000000
 21
112.719641
 31
0.000000
  6
CONTINUOUS
  0
LINE
  8
YELLOW
 10
211.780359
 20
268.500000
 30
0.000000
 11
183.219641
 21
268.500000
 31
0.000000
  6
CONTINUOUS
  0
LINE
  8
YELLOW
 10
211.780359
 20
346.500000
 30
0.000000
 11
183.219641
 21
346.500000
 31
0.000000
  6
CONTINUOUS
  0
LINE
  8
YELLOW
 10
183.219641
 20
430.500000
 30
0.000000
 11
211.780359
 21
430.500000
 31
0.000000
  6
CONTINUOUS
  0
LINE
  8
YELLOW
 10
189.049921
 20
48.271271
 30
0.000000
 11
184.000406
 21
51.819579
 31
0.000000
  6
CONTINUOUS
  0
LINE
  8
YELLOW
 10
187.450079
 20
56.728729
 30
0.000000
 11
192.499594
 21
53.180421
 31
0.000000
  6
CONTINUOUS
  0
LINE
  8
YELLOW
 10
211.780359
 20
56.000000
 30
0.000000
 11
194.500000
 21
63.780359
 31
0.000000
  6
CONTINUOUS
  0
LINE
  8
YELLOW
 10
194.500000
 20
80.219641
 30
0.000000
 11
194.500000
 21
89.780359
 31
0.000000
  6
CONTINUOUS
  0
LINE
  8
YELLOW
 10
211.780359
 20
108.000000
 30
0.000000
 11
194.500000
 21
115.780359
 31
0.000000
  6
CONTINUOUS
  0
LINE
  8
YELLOW
 10
194.500000
 20
132.219641
 30
0.000000
 11
194.500000
 21
141.780359
 31
0.000000
  6
CONTINUOUS
  0
LINE
  8
YELLOW
 10
211.780359
 20
164.500000
 30
0.000000
 11
194.500000
 21
172.280359
 31
0.000000
  6
CONTINUOUS
  0
LINE
  8
YELLOW
 10
194.500000
 20
188.719641
 30
0.000000
 11
194.500000
 21
198.280359
 31
0.000000
  6
CONTINUOUS
  0
LINE
  8
YELLOW
 10
194.500000
 20
214.719641
 30
0.000000
 11
194.500000
 21
224.280359
 31
0.000000
  6
CONTINUOUS
  0
LINE
  8
YELLOW
 10
194.500000
 20
240.719641
 30
0.000000
 11
194.500000
 21
250.280359
 31
0.000000
  6
CONTINUOUS
  0
LINE
  8
YELLOW
 10
205.719641
 20
101.000000
 30
0.000000
 11
223.000000
 21
93.219641
 31
0.000000
  6
CONTINUOUS
  0
LINE
  8
YELLOW
 10
205.719641
 20
153.000000
 30
0.000000
 11
223.000000
 21
145.219641
 31
0.000000
  6
CONTINUOUS
  0
LINE
  8
YELLOW
 10
205.719641
 20
261.500000
 30
0.000000
 11
223.000000
 21
253.719641
 31
0.000000
  6
CONTINUOUS
  0
LINE
  8
YELLOW
 10
205.719641
 20
339.500000
 30
0.000000
 11
223.000000
 21
331.719641
 31
0.000000
  6
CONTINUOUS
  0
LINE
  8
YELLOW
 10
223.000000
 20
76.780359
 30
0.000000
 11
223.000000
 21
67.219641
 31
0.000000
  6
CONTINUOUS
  0
LINE
  8
YELLOW
 10
223.000000
 20
128.780359
 30
0.000000
 11
223.000000
 21
119.219641
 31
0.000000
  6
CONTINUOUS
  0
LINE
  8
YELLOW
 10
223.000000
 20
185.280359
 30
0.000000
 11
223.000000
 21
175.719641
 31
0.000000
  6
CONTINUOUS
  0
LINE
  8
YELLOW
 10
223.000000
 20
211.280359
 30
0.000000
 11
223.000000
 21
201.719641
 31
0.000000
  6
CONTINUOUS
  0
LINE
  8
YELLOW
 10
223.000000
 20
237.280359
 30
0.000000
 11
223.000000
 21
227.719641
 31
0.000000
  6
CONTINUOUS
  0
LINE
  8
YELLOW
 10
223.000000
 20
289.280359
 30
0.000000
 11
223.000000
 21
279.719641
 31
0.000000
  6
CONTINUOUS
  0
LINE
  8
YELLOW
 10
223.000000
 20
315.280359
 30
0.000000
 11
223.000000
 21
305.719641
 31
0.000000
  6
CONTINUOUS
  0
LINE
  8
YELLOW
 10
223.000000
 20
367.280359
 30
0.000000
 11
223.000000
 21
357.719641
 31
0.000000
  6
CONTINUOUS
  0
LINE
  8
YELLOW
 10
223.000000
 20
393.280359
 30
0.000000
 11
223.000000
 21
383.719641
 31
0.000000
  6
CONTINUOUS
  0
LINE
  8
YELLOW
 10
223.000000
 20
419.280359
 30
0.000000
 11
223.000000
 21
409.719641
 31
0.000000
  6
CONTINUOUS
  0
LINE
  8
YELLOW
 10
256.488017
 20
56.973020
 30
0.000000
 11
239.500000
 21
63.780359
 31
0.000000
  6
CONTINUOUS
  0
LINE
  8
YELLOW
 10
239.500000
 20
80.219641
 30
0.000000
 11
239.500000
 21
89.780359
 31
0.000000
  6
CONTINUOUS
  0
LINE
  8
YELLOW
 10
256.780359
 20
108.000000
 30
0.000000
 11
239.500000
 21
115.780359
 31
0.000000
  6
CONTINUOUS
  0
LINE
  8
YELLOW
 10
239.500000
 20
132.219641
 30
0.000000
 11
239.500000
 21
141.780359
 31
0.000000
  6
CONTINUOUS
  0
LINE
  8
YELLOW
 10
256.780359
 20
164.500000
 30
0.000000
 11
239.500000
 21
172.280359
 31
0.000000
  6
CONTINUOUS
  0
LINE
  8
YELLOW
 10
239.500000
 20
188.719641
 30
0.000000
 11
239.500000
 21
198.280359
 31
0.000000
  6
CONTINUOUS
  0
LINE
  8
YELLOW
 10
239.500000
 20
214.719641
 30
0.000000
 11
239.500000
 21
224.280359
 31
0.000000
  6
CONTINUOUS
  0
LINE
  8
YELLOW
 10
239.500000
 20
240.719641
 30
0.000000
 11
239.500000
 21
250.280359
 31
0.000000
  6
CONTINUOUS
  0
LINE
  8
YELLOW
 10
256.780359
 20
268.500000
 30
0.000000
 11
239.500000
 21
276.280359
 31
0.000000
  6
CONTINUOUS
  0
LINE
  8
YELLOW
 10
239.500000
 20
292.719641
 30
0.000000
 11
239.500000
 21
302.280359
 31
0.000000
  6
CONTINUOUS
  0
LINE
  8
YELLOW
 10
239.500000
 20
318.719641
 30
0.000000
 11
239.500000
 21
328.280359
 31
0.000000
  6
CONTINUOUS
  0
LINE
  8
YELLOW
 10
256.780359
 20
346.500000
 30
0.000000
 11
239.500000
 21
354.280359
 31
0.000000
  6
CONTINUOUS
  0
LINE
  8
YELLOW
 10
239.500000
 20
370.719641
 30
0.000000
 11
239.500000
 21
380.280359
 31
0.000000
  6
CONTINUOUS
  0
LINE
  8
YELLOW
 10
239.500000
 20
396.719641
 30
0.000000
 11
239.500000
 21
406.280359
 31
0.000000
  6
CONTINUOUS
  0
LINE
  8
YELLOW
 10
239.500000
 20
422.719641
 30
0.000000
 11
256.780359
 21
430.500000
 31
0.000000
  6
CONTINUOUS
  0
LINE
  8
YELLOW
 10
279.280359
 20
43.000000
 30
0.000000
 11
250.719641
 21
43.000000
 31
0.000000
  6
CONTINUOUS
  0
LINE
  8
YELLOW
 10
250.719641
 20
49.000000
 30
0.000000
 11
279.280359
 21
49.000000
 31
0.000000
  6
CONTINUOUS
  0
LINE
  8
YELLOW
 10
250.719641
 20
101.000000
 30
0.000000
 11
279.280359
 21
101.000000
 31
0.000000
  6
CONTINUOUS
  0
LINE
  8
YELLOW
 10
250.719641
 20
153.000000
 30
0.000000
 11
279.280359
 21
153.000000
 31
0.000000
  6
CONTINUOUS
  0
LINE
  8
YELLOW
 10
250.719641
 20
261.500000
 30
0.000000
 11
279.280359
 21
261.500000
 31
0.000000
  6
CONTINUOUS
  0
LINE
  8
YELLOW
 10
250.719641
 20
339.500000
 30
0.000000
 11
279.280359
 21
339.500000
 31
0.000000
  6
CONTINUOUS
  0
LINE
  8
YELLOW
 10
301.780359
 20
56.973020
 30
0.000000
 11
273.219641
 21
56.973020
 31
0.000000
  6
CONTINUOUS
  0
LINE
  8
YELLOW
 10
301.780359
 20
108.000000
 30
0.000000
 11
273.219641
 21
108.000000
 31
0.000000
  6
CONTINUOUS
  0
LINE
  8
YELLOW
 10
301.780359
 20
164.500000
 30
0.000000
 11
273.219641
 21
164.500000
 31
0.000000
  6
CONTINUOUS
  0
LINE
  8
YELLOW
 10
301.780359
 20
268.500000
 30
0.000000
 11
273.219641
 21
268.500000
 31
0.000000
  6
CONTINUOUS
  0
LINE
  8
YELLOW
 10
301.780359
 20
346.500000
 30
0.000000
 11
273.219641
 21
346.500000
 31
0.000000
  6
CONTINUOUS
  0
LINE
  8
YELLOW
 10
273.219641
 20
430.500000
 30
0.000000
 11
301.780359
 21
430.500000
 31
0.000000
  6
CONTINUOUS
  0
LINE
  8
YELLOW
 10
295.719641
 20
101.000000
 30
0.000000
 11
313.000000
 21
93.219641
 31
0.000000
  6
CONTINUOUS
  0
LINE
  8
YELLOW
 10
295.719641
 20
153.000000
 30
0.000000
 11
313.000000
 21
145.219641
 31
0.000000
  6
CONTINUOUS
  0
LINE
  8
YELLOW
 10
295.719641
 20
261.500000
 30
0.000000
 11
313.000000
 21
253.719641
 31
0.000000
  6
CONTINUOUS
  0
LINE
  8
YELLOW
 10
295.719641
 20
339.500000
 30
0.000000
 11
313.000000
 21
331.719641
 31
0.000000
  6
CONTINUOUS
  0
LINE
  8
YELLOW
 10
313.000000
 20
76.780359
 30
0.000000
 11
313.000000
 21
67.219641
 31
0.000000
  6
CONTINUOUS
  0
LINE
  8
YELLOW
 10
313.000000
 20
128.780359
 30
0.000000
 11
313.000000
 21
119.219641
 31
0.000000
  6
CONTINUOUS
  0
LINE
  8
YELLOW
 10
313.000000
 20
185.280359
 30
0.000000
 11
313.000000
 21
175.719641
 31
0.000000
  6
CONTINUOUS
  0
LINE
  8
YELLOW
 10
313.000000
 20
211.280359
 30
0.000000
 11
313.000000
 21
201.719641
 31
0.000000
  6
CONTINUOUS
  0
LINE
  8
YELLOW
 10
313.000000
 20
237.280359
 30
0.000000
 11
313.000000
 21
227.719641
 31
0.000000
  6
CONTINUOUS
  0
LINE
  8
YELLOW
 10
313.000000
 20
289.280359
 30
0.000000
 11
313.000000
 21
279.719641
 31
0.000000
  6
CONTINUOUS
  0
LINE
  8
YELLOW
 10
313.000000
 20
315.280359
 30
0.000000
 11
313.000000
 21
305.719641
 31
0.000000
  6
CONTINUOUS
  0
LINE
  8
YELLOW
 10
313.000000
 20
367.280359
 30
0.000000
 11
313.000000
 21
357.719641
 31
0.000000
  6
CONTINUOUS
  0
LINE
  8
YELLOW
 10
313.000000
 20
393.280359
 30
0.000000
 11
313.000000
 21
383.719641
 31
0.000000
  6
CONTINUOUS
  0
LINE
  8
YELLOW
 10
313.000000
 20
419.280359
 30
0.000000
 11
313.000000
 21
409.719641
 31
0.000000
  6
CONTINUOUS
  0
LINE
  8
YELLOW
 10
346.488017
 20
56.973020
 30
0.000000
 11
329.500000
 21
63.780359
 31
0.000000
  6
CONTINUOUS
  0
LINE
  8
YELLOW
 10
329.500000
 20
80.219641
 30
0.000000
 11
329.500000
 21
89.780359
 31
0.000000
  6
CONTINUOUS
  0
LINE
  8
YELLOW
 10
346.780359
 20
108.000000
 30
0.000000
 11
329.500000
 21
115.780359
 31
0.000000
  6
CONTINUOUS
  0
LINE
  8
YELLOW
 10
329.500000
 20
132.219641
 30
0.000000
 11
329.500000
 21
141.780359
 31
0.000000
  6
CONTINUOUS
  0
LINE
  8
YELLOW
 10
346.780359
 20
164.500000
 30
0.000000
 11
329.500000
 21
172.280359
 31
0.000000
  6
CONTINUOUS
  0
LINE
  8
YELLOW
 10
329.500000
 20
188.719641
 30
0.000000
 11
329.500000
 21
198.280359
 31
0.000000
  6
CONTINUOUS
  0
LINE
  8
YELLOW
 10
329.500000
 20
214.719641
 30
0.000000
 11
329.500000
 21
224.280359
 31
0.000000
  6
CONTINUOUS
  0
LINE
  8
YELLOW
 10
329.500000
 20
240.719641
 30
0.000000
 11
329.500000
 21
250.280359
 31
0.000000
  6
CONTINUOUS
  0
LINE
  8
YELLOW
 10
346.780359
 20
268.500000
 30
0.000000
 11
329.500000
 21
276.280359
 31
0.000000
  6
CONTINUOUS
  0
LINE
  8
YELLOW
 10
329.500000
 20
292.719641
 30
0.000000
 11
329.500000
 21
302.280359
 31
0.000000
  6
CONTINUOUS
  0
LINE
  8
YELLOW
 10
329.500000
 20
318.719641
 30
0.000000
 11
329.500000
 21
328.280359
 31
0.000000
  6
CONTINUOUS
  0
LINE
  8
YELLOW
 10
346.780359
 20
346.500000
 30
0.000000
 11
329.500000
 21
354.280359
 31
0.000000
  6
CONTINUOUS
  0
LINE
  8
YELLOW
 10
329.500000
 20
370.719641
 30
0.000000
 11
329.500000
 21
380.280359
 31
0.000000
  6
CONTINUOUS
  0
LINE
  8
YELLOW
 10
329.500000
 20
396.719641
 30
0.000000
 11
329.500000
 21
406.280359
 31
0.000000
  6
CONTINUOUS
  0
LINE
  8
YELLOW
 10
329.500000
 20
422.719641
 30
0.000000
 11
346.780359
 21
430.500000
 31
0.000000
  6
CONTINUOUS
  0
LINE
  8
YELLOW
 10
369.280359
 20
43.000000
 30
0.000000
 11
340.719641
 21
43.000000
 31
0.000000
  6
CONTINUOUS
  0
LINE
  8
YELLOW
 10
340.719641
 20
49.000000
 30
0.000000
 11
369.280359
 21
49.000000
 31
0.000000
  6
CONTINUOUS
  0
LINE
  8
YELLOW
 10
340.719641
 20
101.000000
 30
0.000000
 11
369.280359
 21
101.000000
 31
0.000000
  6
CONTINUOUS
  0
LINE
  8
YELLOW
 10
340.719641
 20
153.000000
 30
0.000000
 11
369.280359
 21
153.000000
 31
0.000000
  6
CONTINUOUS
  0
LINE
  8
YELLOW
 10
340.719641
 20
261.500000
 30
0.000000
 11
369.280359
 21
261.500000
 31
0.000000
  6
CONTINUOUS
  0
LINE
  8
YELLOW
 10
340.719641
 20
339.500000
 30
0.000000
 11
369.280359
 21
339.500000
 31
0.000000
  6
CONTINUOUS
  0
LINE
  8
YELLOW
 10
391.780359
 20
56.973020
 30
0.000000
 11
363.219641
 21
56.973020
 31
0.000000
  6
CONTINUOUS
  0
LINE
  8
YELLOW
 10
391.780359
 20
108.000000
 30
0.000000
 11
363.219641
 21
108.000000
 31
0.000000
  6
CONTINUOUS
  0
LINE
  8
YELLOW
 10
391.780359
 20
164.500000
 30
0.000000
 11
363.219641
 21
164.500000
 31
0.000000
  6
CONTINUOUS
  0
LINE
  8
YELLOW
 10
391.780359
 20
268.500000
 30
0.000000
 11
363.219641
 21
268.500000
 31
0.000000
  6
CONTINUOUS
  0
LINE
  8
YELLOW
 10
391.780359
 20
346.500000
 30
0.000000
 11
363.219641
 21
346.500000
 31
0.000000
  6
CONTINUOUS
  0
LINE
  8
YELLOW
 10
363.219641
 20
430.500000
 30
0.000000
 11
391.780359
 21
430.500000
 31
0.000000
  6
CONTINUOUS
  0
LINE
  8
YELLOW
 10
385.000000
 20
518.000000
 30
0.000000
 11
385.000000
 21
978.000000
 31
0.000000
  6
CONTINUOUS
  0
LINE
  8
YELLOW
 10
414.280359
 20
43.000000
 30
0.000000
 11
385.719641
 21
43.000000
 31
0.000000
  6
CONTINUOUS
  0
LINE
  8
YELLOW
 10
414.280359
 20
49.000000
 30
0.000000
 11
385.719641
 21
49.000000
 31
0.000000
  6
CONTINUOUS
  0
LINE
  8
YELLOW
 10
385.719641
 20
101.000000
 30
0.000000
 11
403.000000
 21
93.219641
 31
0.000000
  6
CONTINUOUS
  0
LINE
  8
YELLOW
 10
385.719641
 20
153.000000
 30
0.000000
 11
403.000000
 21
145.219641
 31
0.000000
  6
CONTINUOUS
  0
LINE
  8
YELLOW
 10
385.719641
 20
261.500000
 30
0.000000
 11
403.000000
 21
253.719641
 31
0.000000
  6
CONTINUOUS
  0
LINE
  8
YELLOW
 10
385.719641
 20
339.500000
 30
0.000000
 11
403.000000
 21
331.719641
 31
0.000000
  6
CONTINUOUS
  0
LINE
  8
YELLOW
 10
403.000000
 20
76.780359
 30
0.000000
 11
403.000000
 21
67.219641
 31
0.000000
  6
CONTINUOUS
  0
LINE
  8
YELLOW
 10
403.000000
 20
128.780359
 30
0.000000
 11
403.000000
 21
119.219641
 31
0.000000
  6
CONTINUOUS
  0
LINE
  8
YELLOW
 10
403.000000
 20
185.280359
 30
0.000000
 11
403.000000
 21
175.719641
 31
0.000000
  6
CONTINUOUS
  0
LINE
  8
YELLOW
 10
403.000000
 20
211.280359
 30
0.000000
 11
403.000000
 21
201.719641
 31
0.000000
  6
CONTINUOUS
  0
LINE
  8
YELLOW
 10
403.000000
 20
237.280359
 30
0.000000
 11
403.000000
 21
227.719641
 31
0.000000
  6
CONTINUOUS
  0
LINE
  8
YELLOW
 10
403.000000
 20
289.280359
 30
0.000000
 11
403.000000
 21
279.719641
 31
0.000000
  6
CONTINUOUS
  0
LINE
  8
YELLOW
 10
403.000000
 20
315.280359
 30
0.000000
 11
403.000000
 21
305.719641
 31
0.000000
  6
CONTINUOUS
  0
LINE
  8
YELLOW
 10
403.000000
 20
367.280359
 30
0.000000
 11
403.000000
 21
357.719641
 31
0.000000
  6
CONTINUOUS
  0
LINE
  8
YELLOW
 10
403.000000
 20
393.280359
 30
0.000000
 11
403.000000
 21
383.719641
 31
0.000000
  6
CONTINUOUS
  0
LINE
  8
YELLOW
 10
403.000000
 20
419.280359
 30
0.000000
 11
403.000000
 21
409.719641
 31
0.000000
  6
CONTINUOUS
  0
LINE
  8
YELLOW
 10
436.488017
 20
56.973020
 30
0.000000
 11
419.500000
 21
63.780359
 31
0.000000
  6
CONTINUOUS
  0
LINE
  8
YELLOW
 10
419.500000
 20
80.219641
 30
0.000000
 11
419.500000
 21
89.780359
 31
0.000000
  6
CONTINUOUS
  0
LINE
  8
YELLOW
 10
436.780359
 20
108.000000
 30
0.000000
 11
419.500000
 21
115.780359
 31
0.000000
  6
CONTINUOUS
  0
LINE
  8
YELLOW
 10
419.500000
 20
132.219641
 30
0.000000
 11
419.500000
 21
141.780359
 31
0.000000
  6
CONTINUOUS
  0
LINE
  8
YELLOW
 10
436.780359
 20
164.500000
 30
0.000000
 11
419.500000
 21
172.280359
 31
0.000000
  6
CONTINUOUS
  0
LINE
  8
YELLOW
 10
419.500000
 20
188.719641
 30
0.000000
 11
419.500000
 21
198.280359
 31
0.000000
  6
CONTINUOUS
  0
LINE
  8
YELLOW
 10
419.500000
 20
214.719641
 30
0.000000
 11
419.500000
 21
224.280359
 31
0.000000
  6
CONTINUOUS
  0
LINE
  8
YELLOW
 10
419.500000
 20
240.719641
 30
0.000000
 11
419.500000
 21
250.280359
 31
0.000000
  6
CONTINUOUS
  0
LINE
  8
YELLOW
 10
436.780359
 20
268.500000
 30
0.000000
 11
419.500000
 21
276.280359
 31
0.000000
  6
CONTINUOUS
  0
LINE
  8
YELLOW
 10
419.500000
 20
292.719641
 30
0.000000
 11
419.500000
 21
302.280359
 31
0.000000
  6
CONTINUOUS
  0
LINE
  8
YELLOW
 10
419.500000
 20
318.719641
 30
0.000000
 11
419.500000
 21
328.280359
 31
0.000000
  6
CONTINUOUS
  0
LINE
  8
YELLOW
 10
436.780359
 20
346.500000
 30
0.000000
 11
419.500000
 21
354.280359
 31
0.000000
  6
CONTINUOUS
  0
LINE
  8
YELLOW
 10
419.500000
 20
370.719641
 30
0.000000
 11
419.500000
 21
380.280359
 31
0.000000
  6
CONTINUOUS
  0
LINE
  8
YELLOW
 10
419.500000
 20
396.719641
 30
0.000000
 11
419.500000
 21
406.280359
 31
0.000000
  6
CONTINUOUS
  0
LINE
  8
YELLOW
 10
419.500000
 20
422.719641
 30
0.000000
 11
436.780359
 21
430.500000
 31
0.000000
  6
CONTINUOUS
  0
LINE
  8
YELLOW
 10
459.280359
 20
43.000000
 30
0.000000
 11
430.719641
 21
43.000000
 31
0.000000
  6
CONTINUOUS
  0
LINE
  8
YELLOW
 10
430.719641
 20
49.000000
 30
0.000000
 11
459.280359
 21
49.000000
 31
0.000000
  6
CONTINUOUS
  0
LINE
  8
YELLOW
 10
430.719641
 20
101.000000
 30
0.000000
 11
459.280359
 21
101.000000
 31
0.000000
  6
CONTINUOUS
  0
LINE
  8
YELLOW
 10
430.719641
 20
153.000000
 30
0.000000
 11
459.280359
 21
153.000000
 31
0.000000
  6
CONTINUOUS
  0
LINE
  8
YELLOW
 10
430.719641
 20
261.500000
 30
0.000000
 11
459.280359
 21
261.500000
 31
0.000000
  6
CONTINUOUS
  0
LINE
  8
YELLOW
 10
430.719641
 20
339.500000
 30
0.000000
 11
459.280359
 21
339.500000
 31
0.000000
  6
CONTINUOUS
  0
LINE
  8
YELLOW
 10
481.780359
 20
56.973020
 30
0.000000
 11
453.219641
 21
56.973020
 31
0.000000
  6
CONTINUOUS
  0
LINE
  8
YELLOW
 10
481.780359
 20
108.000000
 30
0.000000
 11
453.219641
 21
108.000000
 31
0.000000
  6
CONTINUOUS
  0
LINE
  8
YELLOW
 10
481.780359
 20
164.500000
 30
0.000000
 11
453.219641
 21
164.500000
 31
0.000000
  6
CONTINUOUS
  0
LINE
  8
YELLOW
 10
481.780359
 20
268.500000
 30
0.000000
 11
453.219641
 21
268.500000
 31
0.000000
  6
CONTINUOUS
  0
LINE
  8
YELLOW
 10
481.780359
 20
346.500000
 30
0.000000
 11
453.219641
 21
346.500000
 31
0.000000
  6
CONTINUOUS
  0
LINE
  8
YELLOW
 10
453.219641
 20
430.500000
 30
0.000000
 11
481.780359
 21
430.500000
 31
0.000000
  6
CONTINUOUS
  0
LINE
  8
YELLOW
 10
475.719641
 20
101.000000
 30
0.000000
 11
493.000000
 21
93.219641
 31
0.000000
  6
CONTINUOUS
  0
LINE
  8
YELLOW
 10
475.719641
 20
153.000000
 30
0.000000
 11
493.000000
 21
145.219641
 31
0.000000
  6
CONTINUOUS
  0
LINE
  8
YELLOW
 10
475.719641
 20
261.500000
 30
0.000000
 11
493.000000
 21
253.719641
 31
0.000000
  6
CONTINUOUS
  0
LINE
  8
YELLOW
 10
475.719641
 20
339.500000
 30
0.000000
 11
493.000000
 21
331.719641
 31
0.000000
  6
CONTINUOUS
  0
LINE
  8
YELLOW
 10
493.000000
 20
76.780359
 30
0.000000
 11
493.000000
 21
67.219641
 31
0.000000
  6
CONTINUOUS
  0
LINE
  8
YELLOW
 10
493.000000
 20
128.780359
 30
0.000000
 11
493.000000
 21
119.219641
 31
0.000000
  6
CONTINUOUS
  0
LINE
  8
YELLOW
 10
493.000000
 20
185.280359
 30
0.000000
 11
493.000000
 21
175.719641
 31
0.000000
  6
CONTINUOUS
  0
LINE
  8
YELLOW
 10
493.000000
 20
211.280359
 30
0.000000
 11
493.000000
 21
201.719641
 31
0.000000
  6
CONTINUOUS
  0
LINE
  8
YELLOW
 10
493.000000
 20
237.280359
 30
0.000000
 11
493.000000
 21
227.719641
 31
0.000000
  6
CONTINUOUS
  0
LINE
  8
YELLOW
 10
493.000000
 20
289.280359
 30
0.000000
 11
493.000000
 21
279.719641
 31
0.000000
  6
CONTINUOUS
  0
LINE
  8
YELLOW
 10
493.000000
 20
315.280359
 30
0.000000
 11
493.000000
 21
305.719641
 31
0.000000
  6
CONTINUOUS
  0
LINE
  8
YELLOW
 10
493.000000
 20
367.280359
 30
0.000000
 11
493.000000
 21
357.719641
 31
0.000000
  6
CONTINUOUS
  0
LINE
  8
YELLOW
 10
493.000000
 20
393.280359
 30
0.000000
 11
493.000000
 21
383.719641
 31
0.000000
  6
CONTINUOUS
  0
LINE
  8
YELLOW
 10
493.000000
 20
419.280359
 30
0.000000
 11
493.000000
 21
409.719641
 31
0.000000
  6
CONTINUOUS
  0
LINE
  8
YELLOW
 10
702.000000
 20
445.897743
 30
0.000000
 11
702.000000
 21
224.449957
 31
0.000000
  6
CONTINUOUS
  0
ARC
  8
YELLOW
 10
681.600000
 20
224.449957
 30
0.000000
 40
20.400000
 50
-45.000000
 51
0.000000
  6
CONTINUOUS
  0
LINE
  8
YELLOW
 10
696.024978
 20
210.024978
 30
0.000000
 11
652.000000
 21
166.000000
 31
0.000000
  6
CONTINUOUS
  0
LINE
  8
YELLOW
 10
652.000000
 20
166.000000
 30
0.000000
 11
652.000000
 21
34.200000
 31
0.000000
  6
CONTINUOUS
  0
ARC
  8
YELLOW
 10
649.800000
 20
34.200000
 30
0.000000
 40
2.200000
 50
-90.000000
 51
0.000000
  6
CONTINUOUS
  0
LINE
  8
YELLOW
 10
649.800000
 20
32.000000
 30
0.000000
 11
559.200000
 21
32.000000
 31
0.000000
  6
CONTINUOUS
  0
ARC
  8
YELLOW
 10
559.200000
 20
34.200000
 30
0.000000
 40
2.200000
 50
180.000000
 51
270.000000
  6
CONTINUOUS
  0
LINE
  8
YELLOW
 10
557.000000
 20
34.200000
 30
0.000000
 11
557.000000
 21
456.000000
 31
0.000000
  6
CONTINUOUS
  0
LINE
  8
WHITE
 10
557.000019
 20
456.008684
 30
0.000000
 11
557.000000
 21
456.000000
 31
0.000000
  6
CONTINUOUS
  0
ARC
  8
YELLOW
 10
559.000000
 20
456.000000
 30
0.000000
 40
2.000000
 50
90.000000
 51
179.751229
  6
CONTINUOUS
  0
LINE
  8
YELLOW
 10
560.000000
 20
391.952004
 30
0.000000
 11
584.000000
 21
391.952004
 31
0.000000
  6
CONTINUOUS
  0
LINE
  8
YELLOW
 10
575.000000
 20
1038.000000
 30
0.000000
 11
575.000000
 21
1232.000000
 31
0.000000
  6
CONTINUOUS
  0
LINE
  8
YELLOW
 10
575.000000
 20
1232.000000
 30
0.000000
 11
675.000000
 21
1232.000000
 31
0.000000
  6
CONTINUOUS
  0
LINE
  8
YELLOW
 10
675.000000
 20
1232.000000
 30
0.000000
 11
675.000000
 21
1038.000000
 31
0.000000
  6
CONTINUOUS
  0
LINE
  8
YELLOW
 10
620.000000
 20
376.636454
 30
0.000000
 11
697.000000
 21
376.636454
 31
0.000000
  6
CONTINUOUS
  0
LINE
  8
YELLOW
 10
620.000000
 20
391.952004
 30
0.000000
 11
697.000000
 21
391.952004
 31
0.000000
  6
CONTINUOUS
  0
LINE
  8
YELLOW
 10
625.000000
 20
518.000000
 30
0.000000
 11
625.000000
 21
978.000000
 31
0.000000
  6
CONTINUOUS
  0
ARC
  8
YELLOW
 10
689.300000
 20
445.300000
 30
0.000000
 40
12.700000
 50
0.000000
 51
90.000000
  6
CONTINUOUS
  0
LINE
  8
YELLOW
 10
1042.000000
 20
389.632960
 30
0.000000
 11
1030.000000
 21
389.632960
 31
0.000000
  6
CONTINUOUS
  0
LINE
  8
YELLOW
 10
1030.000000
 20
389.632960
 30
0.000000
 11
1030.000000
 21
243.166012
 31
0.000000
  6
CONTINUOUS
  0
LINE
  8
YELLOW
 10
1030.000000
 20
243.166012
 30
0.000000
 11
1021.500000
 21
243.166012
 31
0.000000
  6
CONTINUOUS
  0
ARC
  8
YELLOW
 10
1021.500000
 20
242.666012
 30
0.000000
 40
0.500000
 50
90.000000
 51
270.000000
  6
CONTINUOUS
  0
LINE
  8
YELLOW
 10
1021.500000
 20
242.166012
 30
0.000000
 11
1038.500000
 21
242.166012
 31
0.000000
  6
CONTINUOUS
  0
ARC
  8
YELLOW
 10
1038.500000
 20
241.666012
 30
0.000000
 40
0.500000
 50
0.000000
 51
90.000000
  6
CONTINUOUS
  0
LINE
  8
YELLOW
 10
1039.000000
 20
241.666012
 30
0.000000
 11
1039.000000
 21
235.709508
 31
0.000000
  6
CONTINUOUS
  0
ARC
  8
YELLOW
 10
1038.500000
 20
235.709508
 30
0.000000
 40
0.500000
 50
-90.000000
 51
0.000000
  6
CONTINUOUS
  0
LINE
  8
YELLOW
 10
1038.500000
 20
235.209508
 30
0.000000
 11
1021.500000
 21
235.209508
 31
0.000000
  6
CONTINUOUS
  0
ARC
  8
YELLOW
 10
1021.500000
 20
234.709508
 30
0.000000
 40
0.500000
 50
90.000000
 51
270.000000
  6
CONTINUOUS
  0
LINE
  8
YELLOW
 10
1021.500000
 20
234.209508
 30
0.000000
 11
1030.000000
 21
234.209508
 31
0.000000
  6
CONTINUOUS
  0
LINE
  8
YELLOW
 10
1030.000000
 20
234.209508
 30
0.000000
 11
1030.000000
 21
170.806408
 31
0.000000
  6
CONTINUOUS
  0
LINE
  8
YELLOW
 10
1030.000000
 20
170.806408
 30
0.000000
 11
714.000000
 21
170.806408
 31
0.000000
  6
CONTINUOUS
  0
LINE
  8
YELLOW
 10
714.000000
 20
170.806408
 30
0.000000
 11
714.000000
 21
234.209508
 31
0.000000
  6
CONTINUOUS
  0
LINE
  8
YELLOW
 10
714.000000
 20
234.209508
 30
0.000000
 11
722.500000
 21
234.209508
 31
0.000000
  6
CONTINUOUS
  0
ARC
  8
YELLOW
 10
722.500000
 20
234.709508
 30
0.000000
 40
0.500000
 50
-90.000000
 51
90.000000
  6
CONTINUOUS
  0
LINE
  8
YELLOW
 10
722.500000
 20
235.209508
 30
0.000000
 11
705.500000
 21
235.209508
 31
0.000000
  6
CONTINUOUS
  0
ARC
  8
YELLOW
 10
705.500000
 20
235.709508
 30
0.000000
 40
0.500000
 50
180.000000
 51
270.000000
  6
CONTINUOUS
  0
LINE
  8
YELLOW
 10
705.000000
 20
235.709508
 30
0.000000
 11
705.000000
 21
241.666012
 31
0.000000
  6
CONTINUOUS
  0
ARC
  8
YELLOW
 10
705.500000
 20
241.666012
 30
0.000000
 40
0.500000
 50
90.000000
 51
180.000000
  6
CONTINUOUS
  0
LINE
  8
YELLOW
 10
705.500000
 20
242.166012
 30
0.000000
 11
722.500000
 21
242.166012
 31
0.000000
  6
CONTINUOUS
  0
ARC
  8
YELLOW
 10
722.500000
 20
242.666012
 30
0.000000
 40
0.500000
 50
-90.000000
 51
90.000000
  6
CONTINUOUS
  0
LINE
  8
YELLOW
 10
722.500000
 20
243.166012
 30
0.000000
 11
714.000000
 21
243.166012
 31
0.000000
  6
CONTINUOUS
  0
LINE
  8
YELLOW
 10
714.000000
 20
243.166012
 30
0.000000
 11
714.000000
 21
389.632960
 31
0.000000
  6
CONTINUOUS
  0
LINE
  8
YELLOW
 10
714.000000
 20
389.632960
 30
0.000000
 11
702.000000
 21
389.632960
 31
0.000000
  6
CONTINUOUS
  0
LINE
  8
YELLOW
 10
702.000000
 20
413.632960
 30
0.000000
 11
718.200000
 21
413.632960
 31
0.000000
  6
CONTINUOUS
  0
LINE
  8
YELLOW
 10
718.200000
 20
413.632960
 30
0.000000
 11
718.200000
 21
417.652813
 31
0.000000
  6
CONTINUOUS
  0
LINE
  8
YELLOW
 10
718.200000
 20
417.652813
 30
0.000000
 11
1025.800000
 21
417.652813
 31
0.000000
  6
CONTINUOUS
  0
LINE
  8
YELLOW
 10
1025.800000
 20
417.652813
 30
0.000000
 11
1025.800000
 21
413.632960
 31
0.000000
  6
CONTINUOUS
  0
LINE
  8
YELLOW
 10
1025.800000
 20
413.632960
 30
0.000000
 11
1042.000000
 21
413.632960
 31
0.000000
  6
CONTINUOUS
  0
LINE
  8
YELLOW
 10
721.000000
 20
145.000000
 30
0.000000
 11
721.000000
 21
155.000000
 31
0.000000
  6
CONTINUOUS
  0
LINE
  8
YELLOW
 10
721.000000
 20
155.000000
 30
0.000000
 11
717.700000
 21
155.000000
 31
0.000000
  6
CONTINUOUS
  0
ARC
  8
YELLOW
 10
717.700000
 20
167.700000
 30
0.000000
 40
12.700000
 50
180.000000
 51
270.000000
  6
CONTINUOUS
  0
LINE
  8
YELLOW
 10
705.000000
 20
167.700000
 30
0.000000
 11
705.000000
 21
198.000000
 31
0.000000
  6
CONTINUOUS
  0
LINE
  8
YELLOW
 10
705.000000
 20
198.000000
 30
0.000000
 11
711.000000
 21
198.000000
 31
0.000000
  6
CONTINUOUS
  0
LINE
  8
YELLOW
 10
711.000000
 20
198.000000
 30
0.000000
 11
711.000000
 21
167.700000
 31
0.000000
  6
CONTINUOUS
  0
ARC
  8
YELLOW
 10
717.700000
 20
167.700000
 30
0.000000
 40
6.700000
 50
180.000000
 51
270.000000
  6
CONTINUOUS
  0
LINE
  8
YELLOW
 10
717.700000
 20
161.000000
 30
0.000000
 11
1026.300000
 21
161.000000
 31
0.000000
  6
CONTINUOUS
  0
ARC
  8
YELLOW
 10
1026.300000
 20
167.700000
 30
0.000000
 40
6.700000
 50
-90.000000
 51
0.000000
  6
CONTINUOUS
  0
LINE
  8
YELLOW
 10
1033.000000
 20
167.700000
 30
0.000000
 11
1033.000000
 21
198.000000
 31
0.000000
  6
CONTINUOUS
  0
LINE
  8
YELLOW
 10
1033.000000
 20
198.000000
 30
0.000000
 11
1039.000000
 21
198.000000
 31
0.000000
  6
CONTINUOUS
  0
LINE
  8
YELLOW
 10
1039.000000
 20
198.000000
 30
0.000000
 11
1039.000000
 21
167.700000
 31
0.000000
  6
CONTINUOUS
  0
ARC
  8
YELLOW
 10
1026.300000
 20
167.700000
 30
0.000000
 40
12.700000
 50
-90.000000
 51
0.000000
  6
CONTINUOUS
  0
LINE
  8
YELLOW
 10
1026.300000
 20
155.000000
 30
0.000000
 11
1023.000000
 21
155.000000
 31
0.000000
  6
CONTINUOUS
  0
LINE
  8
YELLOW
 10
1023.000000
 20
155.000000
 30
0.000000
 11
1023.000000
 21
145.000000
 31
0.000000
  6
CONTINUOUS
  0
LINE
  8
YELLOW
 10
714.000000
 20
177.000000
 30
0.000000
 11
711.000000
 21
177.000000
 31
0.000000
  6
CONTINUOUS
  0
LINE
  8
YELLOW
 10
714.000000
 20
189.000000
 30
0.000000
 11
711.000000
 21
189.000000
 31
0.000000
  6
CONTINUOUS
  0
ARC
  8
YELLOW
 10
722.100000
 20
212.900000
 30
0.000000
 40
8.100000
 50
118.782205
 51
180.000000
  6
CONTINUOUS
  0
LINE
  8
YELLOW
 10
1025.800000
 20
170.806408
 30
0.000000
 11
1025.800000
 21
221.000000
 31
0.000000
  6
CONTINUOUS
  0
LINE
  8
YELLOW
 10
1025.800000
 20
221.000000
 30
0.000000
 11
718.200000
 21
221.000000
 31
0.000000
  6
CONTINUOUS
  0
LINE
  8
YELLOW
 10
718.200000
 20
221.000000
 30
0.000000
 11
718.200000
 21
170.806408
 31
0.000000
  6
CONTINUOUS
  0
LINE
  8
YELLOW
 10
718.200000
 20
176.000000
 30
0.000000
 11
725.369048
 21
176.000000
 31
0.000000
  6
CONTINUOUS
  0
ARC
  8
YELLOW
 10
725.369048
 20
181.000000
 30
0.000000
 40
5.000000
 50
-90.000000
 51
-30.963757
  6
CONTINUOUS
  0
LINE
  8
YELLOW
 10
729.656513
 20
178.427521
 30
0.000000
 11
741.743487
 21
198.572479
 31
0.000000
  6
CONTINUOUS
  0
ARC
  8
YELLOW
 10
746.030952
 20
196.000000
 30
0.000000
 40
5.000000
 50
90.000000
 51
149.036243
  6
CONTINUOUS
  0
LINE
  8
YELLOW
 10
746.030952
 20
201.000000
 30
0.000000
 11
997.969048
 21
201.000000
 31
0.000000
  6
CONTINUOUS
  0
ARC
  8
YELLOW
 10
997.969048
 20
196.000000
 30
0.000000
 40
5.000000
 50
30.963757
 51
90.000000
  6
CONTINUOUS
  0
LINE
  8
YELLOW
 10
1002.256513
 20
198.572479
 30
0.000000
 11
1014.343487
 21
178.427521
 31
0.000000
  6
CONTINUOUS
  0
ARC
  8
YELLOW
 10
1018.630952
 20
181.000000
 30
0.000000
 40
5.000000
 50
-149.036243
 51
-90.000000
  6
CONTINUOUS
  0
LINE
  8
YELLOW
 10
1018.630952
 20
176.000000
 30
0.000000
 11
1025.800000
 21
176.000000
 31
0.000000
  6
CONTINUOUS
  0
LINE
  8
YELLOW
 10
725.000000
 20
518.000000
 30
0.000000
 11
725.000000
 21
978.000000
 31
0.000000
  6
CONTINUOUS
  0
LINE
  8
YELLOW
 10
855.687958
 20
244.240577
 30
0.000000
 11
762.000000
 21
244.240577
 31
0.000000
  6
CONTINUOUS
  0
ARC
  8
YELLOW
 10
762.000000
 20
249.240577
 30
0.000000
 40
5.000000
 50
180.000000
 51
270.000000
  6
CONTINUOUS
  0
LINE
  8
YELLOW
 10
757.000000
 20
249.240577
 30
0.000000
 11
757.000000
 21
299.746204
 31
0.000000
  6
CONTINUOUS
  0
ARC
  8
YELLOW
 10
752.000000
 20
299.746204
 30
0.000000
 40
5.000000
 50
0.000000
 51
90.000000
  6
CONTINUOUS
  0
LINE
  8
YELLOW
 10
752.000000
 20
304.746204
 30
0.000000
 11
747.000000
 21
304.746204
 31
0.000000
  6
CONTINUOUS
  0
ARC
  8
YELLOW
 10
747.000000
 20
309.746204
 30
0.000000
 40
5.000000
 50
180.000000
 51
270.000000
  6
CONTINUOUS
  0
LINE
  8
YELLOW
 10
742.000000
 20
309.746204
 30
0.000000
 11
742.000000
 21
384.246367
 31
0.000000
  6
CONTINUOUS
  0
ARC
  8
YELLOW
 10
747.000000
 20
384.246367
 30
0.000000
 40
5.000000
 50
90.000000
 51
180.000000
  6
CONTINUOUS
  0
LINE
  8
YELLOW
 10
747.000000
 20
389.246367
 30
0.000000
 11
857.000000
 21
389.246367
 31
0.000000
  6
CONTINUOUS
  0
LINE
  8
YELLOW
 10
857.000000
 20
389.246367
 30
0.000000
 11
857.000000
 21
319.846204
 31
0.000000
  6
CONTINUOUS
  0
ARC
  8
YELLOW
 10
848.900000
 20
319.846204
 30
0.000000
 40
8.100000
 50
-90.000000
 51
0.000000
  6
CONTINUOUS
  0
LINE
  8
YELLOW
 10
848.900000
 20
311.746204
 30
0.000000
 11
760.100000
 21
311.746204
 31
0.000000
  6
CONTINUOUS
  0
ARC
  8
YELLOW
 10
760.100000
 20
319.846204
 30
0.000000
 40
8.100000
 50
180.000000
 51
270.000000
  6
CONTINUOUS
  0
LINE
  8
YELLOW
 10
752.000000
 20
319.846204
 30
0.000000
 11
752.000000
 21
389.632960
 31
0.000000
  6
CONTINUOUS
  0
LINE
  8
YELLOW
 10
853.000000
 20
389.246367
 30
0.000000
 11
853.000000
 21
319.846204
 31
0.000000
  6
CONTINUOUS
  0
ARC
  8
YELLOW
 10
848.900000
 20
319.846204
 30
0.000000
 40
4.100000
 50
-90.000000
 51
0.000000
  6
CONTINUOUS
  0
LINE
  8
YELLOW
 10
848.900000
 20
315.746204
 30
0.000000
 11
760.100000
 21
315.746204
 31
0.000000
  6
CONTINUOUS
  0
ARC
  8
YELLOW
 10
760.100000
 20
319.846204
 30
0.000000
 40
4.100000
 50
180.000000
 51
270.000000
  6
CONTINUOUS
  0
LINE
  8
YELLOW
 10
756.000000
 20
319.846204
 30
0.000000
 11
756.000000
 21
389.246367
 31
0.000000
  6
CONTINUOUS
  0
LINE
  8
YELLOW
 10
763.000000
 20
311.746204
 30
0.000000
 11
763.000000
 21
251.246204
 31
0.000000
  6
CONTINUOUS
  0
LINE
  8
YELLOW
 10
763.000000
 20
251.246204
 30
0.000000
 11
834.000000
 21
251.246204
 31
0.000000
  6
CONTINUOUS
  0
LINE
  8
YELLOW
 10
834.000000
 20
251.246204
 30
0.000000
 11
834.000000
 21
311.746204
 31
0.000000
  6
CONTINUOUS
  0
LINE
  8
YELLOW
 10
791.000000
 20
244.240577
 30
0.000000
 11
791.000000
 21
251.246204
 31
0.000000
  6
CONTINUOUS
  0
LINE
  8
YELLOW
 10
803.000000
 20
251.246204
 30
0.000000
 11
803.000000
 21
244.240577
 31
0.000000
  6
CONTINUOUS
  0
LINE
  8
YELLOW
 10
855.688207
 20
244.238704
 30
0.000000
 11
857.000000
 21
244.238704
 31
0.000000
  6
CONTINUOUS
  0
LINE
  8
YELLOW
 10
857.000000
 20
145.000000
 30
0.000000
 11
857.000000
 21
161.000000
 31
0.000000
  6
CONTINUOUS
  0
ARC
  8
YELLOW
 10
857.000000
 20
384.246367
 30
0.000000
 40
5.000000
 50
0.000000
 51
90.000000
  6
CONTINUOUS
  0
LINE
  8
YELLOW
 10
862.000000
 20
384.246367
 30
0.000000
 11
862.000000
 21
249.240577
 31
0.000000
  6
CONTINUOUS
  0
ARC
  8
YELLOW
 10
857.000000
 20
249.240577
 30
0.000000
 40
5.000000
 50
-90.000000
 51
0.000000
  6
CONTINUOUS
  0
LINE
  8
YELLOW
 10
880.039954
 20
518.000000
 30
0.000000
 11
880.039954
 21
978.000000
 31
0.000000
  6
CONTINUOUS
  0
LINE
  8
YELLOW
 10
887.000000
 20
161.000000
 30
0.000000
 11
887.000000
 21
145.000000
 31
0.000000
  6
CONTINUOUS
  0
LINE
  8
YELLOW
 10
992.000000
 20
389.632960
 30
0.000000
 11
992.000000
 21
319.846204
 31
0.000000
  6
CONTINUOUS
  0
ARC
  8
YELLOW
 10
983.900000
 20
319.846204
 30
0.000000
 40
8.100000
 50
-90.000000
 51
0.000000
  6
CONTINUOUS
  0
LINE
  8
YELLOW
 10
983.900000
 20
311.746204
 30
0.000000
 11
895.100000
 21
311.746204
 31
0.000000
  6
CONTINUOUS
  0
ARC
  8
YELLOW
 10
895.100000
 20
319.846204
 30
0.000000
 40
8.100000
 50
180.000000
 51
270.000000
  6
CONTINUOUS
  0
LINE
  8
YELLOW
 10
887.000000
 20
319.846204
 30
0.000000
 11
887.000000
 21
389.246367
 31
0.000000
  6
CONTINUOUS
  0
LINE
  8
YELLOW
 10
891.000000
 20
389.246367
 30
0.000000
 11
891.000000
 21
319.846204
 31
0.000000
  6
CONTINUOUS
  0
ARC
  8
YELLOW
 10
895.100000
 20
319.846204
 30
0.000000
 40
4.100000
 50
180.000000
 51
270.000000
  6
CONTINUOUS
  0
LINE
  8
YELLOW
 10
895.100000
 20
315.746204
 30
0.000000
 11
983.900000
 21
315.746204
 31
0.000000
  6
CONTINUOUS
  0
ARC
  8
YELLOW
 10
983.900000
 20
319.846204
 30
0.000000
 40
4.100000
 50
-90.000000
 51
0.000000
  6
CONTINUOUS
  0
LINE
  8
YELLOW
 10
988.000000
 20
319.846204
 30
0.000000
 11
988.000000
 21
389.246367
 31
0.000000
  6
CONTINUOUS
  0
LINE
  8
YELLOW
 10
910.000000
 20
311.746204
 30
0.000000
 11
910.000000
 21
251.246204
 31
0.000000
  6
CONTINUOUS
  0
LINE
  8
YELLOW
 10
910.000000
 20
251.246204
 30
0.000000
 11
981.000000
 21
251.246204
 31
0.000000
  6
CONTINUOUS
  0
LINE
  8
YELLOW
 10
981.000000
 20
251.246204
 30
0.000000
 11
981.000000
 21
311.746204
 31
0.000000
  6
CONTINUOUS
  0
LINE
  8
YELLOW
 10
941.000000
 20
244.240577
 30
0.000000
 11
941.000000
 21
251.246204
 31
0.000000
  6
CONTINUOUS
  0
LINE
  8
YELLOW
 10
953.000000
 20
251.246204
 30
0.000000
 11
953.000000
 21
244.240577
 31
0.000000
  6
CONTINUOUS
  0
LINE
  8
YELLOW
 10
980.039954
 20
978.000000
 30
0.000000
 11
980.039954
 21
518.000000
 31
0.000000
  6
CONTINUOUS
  0
ARC
  8
YELLOW
 10
1021.900000
 20
212.900000
 30
0.000000
 40
8.100000
 50
0.000000
 51
61.217795
  6
CONTINUOUS
  0
LINE
  8
YELLOW
 10
1033.000000
 20
177.000000
 30
0.000000
 11
1030.000000
 21
177.000000
 31
0.000000
  6
CONTINUOUS
  0
LINE
  8
YELLOW
 10
1033.000000
 20
189.000000
 30
0.000000
 11
1030.000000
 21
189.000000
 31
0.000000
  6
CONTINUOUS
  0
ARC
  8
YELLOW
 10
1185.000000
 20
456.000000
 30
0.000000
 40
2.000000
 50
0.000000
 51
90.000000
  6
CONTINUOUS
  0
LINE
  8
YELLOW
 10
1187.000000
 20
456.000000
 30
0.000000
 11
1187.000000
 21
34.200000
 31
0.000000
  6
CONTINUOUS
  0
ARC
  8
YELLOW
 10
1184.800000
 20
34.200000
 30
0.000000
 40
2.200000
 50
-90.000000
 51
0.000000
  6
CONTINUOUS
  0
LINE
  8
YELLOW
 10
1184.800000
 20
32.000000
 30
0.000000
 11
1094.200000
 21
32.000000
 31
0.000000
  6
CONTINUOUS
  0
ARC
  8
YELLOW
 10
1094.200000
 20
34.200000
 30
0.000000
 40
2.200000
 50
180.000000
 51
270.000000
  6
CONTINUOUS
  0
LINE
  8
YELLOW
 10
1092.000000
 20
34.200000
 30
0.000000
 11
1092.000000
 21
166.000000
 31
0.000000
  6
CONTINUOUS
  0
LINE
  8
YELLOW
 10
1092.000000
 20
166.000000
 30
0.000000
 11
1047.975022
 21
210.024978
 31
0.000000
  6
CONTINUOUS
  0
ARC
  8
YELLOW
 10
1062.400000
 20
224.449957
 30
0.000000
 40
20.400000
 50
180.000000
 51
225.000000
  6
CONTINUOUS
  0
LINE
  8
YELLOW
 10
1042.000000
 20
224.449957
 30
0.000000
 11
1042.000000
 21
445.300000
 31
0.000000
  6
CONTINUOUS
  0
ARC
  8
YELLOW
 10
1054.700000
 20
445.300000
 30
0.000000
 40
12.700000
 50
90.000000
 51
180.000000
  6
CONTINUOUS
  0
LINE
  8
YELLOW
 10
1047.000000
 20
391.952004
 30
0.000000
 11
1090.000000
 21
391.952004
 31
0.000000
  6
CONTINUOUS
  0
LINE
  8
YELLOW
 10
1048.826252
 20
371.157697
 30
0.000000
 11
1091.826252
 21
371.157697
 31
0.000000
  6
CONTINUOUS
  0
LINE
  8
YELLOW
 10
1184.985786
 20
978.000000
 30
0.000000
 11
1184.985786
 21
781.000000
 31
0.000000
  6
CONTINUOUS
  0
LINE
  8
YELLOW
 10
1184.985786
 20
781.000000
 30
0.000000
 11
1084.985787
 21
781.000000
 31
0.000000
  6
CONTINUOUS
  0
LINE
  8
YELLOW
 10
1084.985787
 20
781.000000
 30
0.000000
 11
1084.985787
 21
978.000000
 31
0.000000
  6
CONTINUOUS
  0
LINE
  8
YELLOW
 10
1100.000000
 20
1038.000000
 30
0.000000
 11
1100.000000
 21
1232.000000
 31
0.000000
  6
CONTINUOUS
  0
LINE
  8
YELLOW
 10
1100.000000
 20
1232.000000
 30
0.000000
 11
1200.000000
 21
1232.000000
 31
0.000000
  6
CONTINUOUS
  0
LINE
  8
YELLOW
 10
1200.000000
 20
1232.000000
 30
0.000000
 11
1200.000000
 21
1038.000000
 31
0.000000
  6
CONTINUOUS
  0
LINE
  8
YELLOW
 10
1126.000000
 20
376.636454
 30
0.000000
 11
1184.000000
 21
376.636454
 31
0.000000
  6
CONTINUOUS
  0
LINE
  8
YELLOW
 10
1126.000000
 20
391.952004
 30
0.000000
 11
1184.000000
 21
391.952004
 31
0.000000
  6
CONTINUOUS
  0
LINE
  8
YELLOW
 10
1370.000000
 20
458.000000
 30
0.000000
 11
1370.000000
 21
32.000000
 31
0.000000
  6
CONTINUOUS
  0
LINE
  8
YELLOW
 10
1370.000000
 20
32.000000
 30
0.000000
 11
1470.000000
 21
32.000000
 31
0.000000
  6
CONTINUOUS
  0
LINE
  8
YELLOW
 10
1470.000000
 20
32.000000
 30
0.000000
 11
1470.000000
 21
458.000000
 31
0.000000
  6
CONTINUOUS
  0
LINE
  8
YELLOW
 10
1529.967756
 20
978.000000
 30
0.000000
 11
1529.967756
 21
781.000000
 31
0.000000
  6
CONTINUOUS
  0
LINE
  8
YELLOW
 10
1529.967756
 20
781.000000
 30
0.000000
 11
1429.967756
 21
781.000000
 31
0.000000
  6
CONTINUOUS
  0
LINE
  8
YELLOW
 10
1429.967756
 20
781.000000
 30
0.000000
 11
1429.967756
 21
978.000000
 31
0.000000
  6
CONTINUOUS
  0
LINE
  8
YELLOW
 10
1710.000000
 20
1038.000000
 30
0.000000
 11
1710.000000
 21
1232.000000
 31
0.000000
  6
CONTINUOUS
  0
LINE
  8
YELLOW
 10
1710.000000
 20
1232.000000
 30
0.000000
 11
1810.000000
 21
1232.000000
 31
0.000000
  6
CONTINUOUS
  0
LINE
  8
YELLOW
 10
1810.000000
 20
1232.000000
 30
0.000000
 11
1810.000000
 21
1038.000000
 31
0.000000
  6
CONTINUOUS
  0
LINE
  8
YELLOW
 10
1820.000000
 20
518.000000
 30
0.000000
 11
1820.000000
 21
978.000000
 31
0.000000
  6
CONTINUOUS
  0
LINE
  8
YELLOW
 10
1970.000000
 20
458.000000
 30
0.000000
 11
1970.000000
 21
32.000000
 31
0.000000
  6
CONTINUOUS
  0
LINE
  8
YELLOW
 10
1970.000000
 20
32.000000
 30
0.000000
 11
1870.000000
 21
32.000000
 31
0.000000
  6
CONTINUOUS
  0
LINE
  8
YELLOW
 10
1870.000000
 20
32.000000
 30
0.000000
 11
1870.000000
 21
458.000000
 31
0.000000
  6
CONTINUOUS
  0
LINE
  8
YELLOW
 10
1920.000000
 20
518.000000
 30
0.000000
 11
1920.000000
 21
978.000000
 31
0.000000
  6
CONTINUOUS
  0
LINE
  8
YELLOW
 10
2345.000000
 20
458.000000
 30
0.000000
 11
2345.000000
 21
32.000000
 31
0.000000
  6
CONTINUOUS
  0
LINE
  8
YELLOW
 10
2345.000000
 20
32.000000
 30
0.000000
 11
2445.000000
 21
32.000000
 31
0.000000
  6
CONTINUOUS
  0
LINE
  8
YELLOW
 10
2445.000000
 20
32.000000
 30
0.000000
 11
2445.000000
 21
1232.000000
 31
0.000000
  6
CONTINUOUS
  0
LINE
  8
YELLOW
 10
2445.000000
 20
1232.000000
 30
0.000000
 11
2345.000000
 21
1232.000000
 31
0.000000
  6
CONTINUOUS
  0
LINE
  8
YELLOW
 10
2345.000000
 20
1232.000000
 30
0.000000
 11
2345.000000
 21
1038.000000
 31
0.000000
  6
CONTINUOUS
  0
LINE
  8
YELLOW
 10
2345.000000
 20
518.000000
 30
0.000000
 11
2345.000000
 21
978.000000
 31
0.000000
  6
CONTINUOUS
  0
ENDSEC
  0
EOF
